Oops, an error
Loading. Please wait.

Entre Remolinos tab

version 1
version 1

Whole song

758 views 6 this week
no commentswrite comment
1 2 3 4 5
2 more votes to show rating
add to favorites
×
Save as Personal and add changes to this tab that will be seen only by you. Learn more ›
×
You can save this tab as Personal to edit and correct it or add notes. All changes will be seen only by you. Learn more »
launch autoscroll
font size
0
reset
how to read this tab
guitar tuner
edit
Autoscroll
slow
fast
+/-
esc
set tempo
stop
LA intro:
   F#*                          G#m*
e/---------------------------**-------2----2-------2---------
B/--------0----0-----0-------**-----0----0-------0-----0-----
G/------3-----3-----3------3-**---3-----3------3------3------
D/----2-----2------2-----2---**------------------------------
A/---------------------------**------------------------------
E/--0-------------0----------**-4-------------4--------------


esta misma tablatura se hace
en la estrofa......


  Dejo caer en mi arena sus pies
  Dejo saber en mis labios su sed
  Juntos probamos la noche el suave murmullo el imán y la flor
  Fuimos casi un muro casi viento casi sal fuimos casi nada y todo
  De una sola vez todo de una sola vez


  Los dedos Iván tanteando entre piel y piel
  Era el reconocimiento de sudores de su nombre
  Fuimos casi un muro casi viento casi sal fuimos casi nada y todo
  De una sola vez de    una sola vez de una sola vez?


E                  G#m                     C#m
  y  nos quedamos ahí como bordando el dolor
                      F#
  como sacando del mar el rostro para llorar
E                  G#m                      C#m
  y nos quedamos ahí con la cerzteza de estar
           F#                 E           F#
  enredados entre remolinos y su amoooooorrrr...
    E           F#        E           F#
  y su amoooooorrrr.... y su amoooooorrrr

(despue viene la tablatura:)

F#*                          G#m*
e/---------------------------**-------2----2-------2---------
B/--------0----0-----0-------**-----0----0-------0-----0-----
G/------3-----3-----3------3-**---3-----3------3------3------
D/----2-----2------2-----2---**------------------------------
A/---------------------------**------------------------------
E/--0-------------0----------**-4-------------4--------------


Los acordes:

F#*     G#*

e/-0--* *-2
B/-0--* *-0
G/-3--* *-3
D/-4--* *-4
A/-4--* *-0
E/-0--* *-4

            
            
Suggest correction
Creating personal tab
Creating personal tab
You can edit any tab online and save it as your Personal.

You can edit, replace or remove any tab part or add personal notes – all changes will be seen only by you.

Personal tabs can be accessed anytime from any device, even offline.
Learn more »
Give kudos to tab author, rate the tab!
1 2 3 4 5
comments
print report bad tab
guest
Wanna post a correction for this tab? Suggest correction