Oops, an error
Loading. Please wait.

Fantasma Camaleon tab

23 views 1 this week
no commentswrite comment
1 2 3 4 5
3 more votes to show rating
add to favorites
×
Save as Personal and add changes to this tab that will be seen only by you. Learn more ›
×
You can save this tab as Personal to edit and correct it or add notes. All changes will be seen only by you. Learn more »
launch autoscroll
font size
0
reset
how to read this tab
guitar tuner
edit
Autoscroll
slow
fast
+/-
esc
set tempo
stop
Dedicada a todos los que luchamos contra las malas lenguas
dia a dia .... y que salimos adelante
VIVA EL ROCK NICA!!!!!!!

Intro:
           F#m*   Amaj C#maj
           F#m*   Amaj C#maj
           F#m*   Amaj C#maj
           F#m*   Amaj C#maj

Segunda Guitarra
    F# m             Amaj            C#maj
e|--------------------------------------------------|
B|--------------------------------------------------|
G|------2---------2------4--------------------2-----|
D|---4-----4-4-4-----6-----6----0---2---4---6---4---|
A|--------------------------------------------------|
E|--------------------------------------------------|

  F# m             Amaj            C#maj
e|--------------------------------------------------|
B|--------------------------------------------------|
G|------2---------2------4--------------------2-----|
D|---4-----4-4-4-----6-----6----0---2---4---6---4---|
A|--------------------------------------------------|
E|--------------------------------------------------|

Guitarra principal
F# m             Amaj            C#maj
Alguna gente dice que  mi cancion es sorda

F#m                    Amaj               C#maj
De pocos elementos de  falsa volunta

F#m                           Amaj         C#maj
Que engaño a los oidos  hablando al raz del suelo

F#m                 Amaj             C#maj
Que soy la pantonina de un circo familiar

F#m                    Amaj       C#maj
Alguna gente dice que invento la verdad

F#m                 Amaj               C#maj
Y que de boca en boca me vuelvo un huracán

F#m                           Amaj         C#maj
Que soy un tipo enfermo mitómano y alcohol

F#m                     Amaj            C#maj
Que soy de varios sexos que soy lo que no soy


Segunda Guitarra
e|-5-5-5-5-4-4-4-4-4-4-5-5-5-5-5-4-4-4-4-4-5-5-5-5-
B|-------------------------------------------------|
G|-------------------------------------------------|
D|-------------------------------------------------|
A|-------------------------------------------------|
E|-------------------------------------------------|

F#m                Amaj           C#maj
Y si la envidia pudre tu enano corazón

F#m               Amaj              C#maj
Lo siento buen hermano perrozompopo  soy

F#m                  Amaj           C#maj
Y si la envidia pudre tu enano corazón

F#m                 Amaj              C#maj
Lo siento buen hermano perrozompopo soy


Coro:
e|--------------------------|
B|--2-2-2-4-4-4-------------|
G|--2-2-2-4-4-4-------------|
D|--2-2-2-4-4-4-------------|
A|--------2-2-2-------------|
E|--------------------------|

No vas a derrotarme fantasma camalion

e|----------------------------|
B|----7-7-7--2-2-2-4-4-4------|
G|----7-7-7--2-2-2-4-4-4------|
D|----7-7-7--2-2-2-4-4-4------|
A|----5-5-5--2-2-2-4-4-4------|
E|----------------------------|

Yo siempre tengo un angel un sable y esta voz
e|------------------|
B|--2-2-2-----------|
G|--2-2-2-4-4-4-----|
D|--2-2-2-5-5-5-----|
A|--------5-5-5-----|
E|--------3-3-3-----|

Un escudo violeta y una buena intencion
e|----------------------------|
B|----7-7-7--2-2-2-4-4-4------|
G|----7-7-7--2-2-2-4-4-4------|
D|----7-7-7--2-2-2-4-4-4------|
A|----5-5-5--2-2-2-4-4-4------|
E|----------------------------|

No vas a derrotarme fantasma camalion


Segunda Guitarra
    F# m             Amaj            C#maj
e|--------------------------------------------------|
B|--------------------------------------------------|
G|------2---------2------4--------------------2-----|
D|---4-----4-4-4-----6-----6----0---2---4---6---4---|
A|--------------------------------------------------|
E|--------------------------------------------------|

  F# m             Amaj            C#maj
e|--------------------------------------------------|
B|--------------------------------------------------|
G|------2---------2------4--------------------2-----|
D|---4-----4-4-4-----6-----6----0---2---4---6---4---|
A|--------------------------------------------------|
E|--------------------------------------------------|

Guitarra principal
F#m                Amaj                    C#maj
Hay gente que se empeña en querernos opacar

F#m              Amaj              C#maj
Sacándote las tripas del alma y del amor

F#m                            Amaj         C#maj
Cerrando los caminos que tanto cuesta hallar

F#m                Amaj        C#maj
Escupiendo gusanos cargados de infección

F#m                       Amaj             C#maj
Y aunque parezca broma se acercan para darte

F#m              Amaj              C#maj
Un beso envenenado que judas les dejo

F#m                   Amaj           C#maj
Es gente que no puede lograr lo que soñó

F#m                     Amaj      C#maj
Un beso en otra boca un son la libertad

Segunda Guitarra
e|-5-5-5-5-4-4-4-4-4-4-5-5-5-5-5-4-4-4-4-4-5-5-5-5-|
B|-------------------------------------------------|
G|-------------------------------------------------|
D|-------------------------------------------------|
A|-------------------------------------------------|
E|-------------------------------------------------|


F#m                Amaj           C#maj
Y si la envidia pudre tu enano corazón

F#m               Amaj              C#maj
Lo siento buen hermano perrozompopo  soy

F#m                  Amaj           C#maj
Y si la envidia pudre tu enano corazón

F#m                 Amaj              C#maj
Lo siento buen hermano perrozompopo soy

Coro:
e|--------------------------|
B|--2-2-2-4-4-4-------------|
G|--2-2-2-4-4-4-------------|
D|--2-2-2-4-4-4-------------|
A|--------2-2-2-------------|
E|--------------------------|

No vas a derrotarme fantasma camalion

e|----------------------------|
B|----7-7-7--2-2-2-4-4-4------|
G|----7-7-7--2-2-2-4-4-4------|
D|----7-7-7--2-2-2-4-4-4------|
A|----5-5-5--2-2-2-4-4-4------|
E|----------------------------|

Yo siempre tengo un angel un sable y esta voz
e|------------------|
B|--2-2-2-----------|
G|--2-2-2-4-4-4-----|
D|--2-2-2-5-5-5-----|
A|--------5-5-5-----|
E|--------3-3-3-----|

Un escudo violeta y una buena intencion
e|----------------------------|
B|----7-7-7--2-2-2-4-4-4------|
G|----7-7-7--2-2-2-4-4-4------|
D|----7-7-7--2-2-2-4-4-4------|
A|----5-5-5--2-2-2-4-4-4------|
E|----------------------------|

No vas a derrotarme fantasma camalion


Signatura:


F#m=   244222

Amaj=  404420

C#maj=  x43420

F#m*=  244324

A= 002220

B= 224442

D= 000232

E= 022100


 PARA TODOS AQUELLOS QUE PENSARON DERROTARME UNA VEZ
PERO QUE NUNCA LO LOGRARON ...
NI LO LOGRARAN?

            
            
Suggest correction
Creating personal tab
Creating personal tab
You can edit any tab online and save it as your Personal.

You can edit, replace or remove any tab part or add personal notes – all changes will be seen only by you.

Personal tabs can be accessed anytime from any device, even offline.
Learn more »
Give kudos to tab author, rate the tab!
1 2 3 4 5
comments
print report bad tab
guest
Wanna post a correction for this tab? Suggest correction