Oops, an error
Loading. Please wait.

Muchacha De Arena chords

version 2
version 2

Whole song

27 views 1 this week
no commentswrite comment
1 2 3 4 5
3 more votes to show rating
add to favorites
×
Save as Personal and add changes to this tab that will be seen only by you. Learn more ›
×
You can save this tab as Personal to edit and correct it or add notes. All changes will be seen only by you. Learn more »
launch autoscroll
font size
0
reset
transpose
0
reset
display chords
guitar tuner
edit
Autoscroll
slow
fast
+/-
esc
set tempo
stop
Strumming
There is no strumming pattern for this song yet. and get +5 IQ
SUGERENCIA O COMENTARIO A MARTENOS2002@

INTRO:

1-----------------------------------------------
2-----------------------------------------------
3-----------------------------------------------
4------------5----------5---------5-----------5-
5---------2----------3---------2----------3-----
6-----0-----------0---------0---------0---------


AQUI COMIENZA SE TOCA ESTO CON LA FRASE QUE ESTA DEBAJO
1-----------------------
2-----------------------
3-----------------------
4----------------5------
5-----------2-----------
6-------0---------------
Dame la arena y el olear de tus caderas

1-----------------------
2-----------------------
3-----------------------
4----------------5------
5-----------3-----------
6-------0---------------
Sobre la playa donde solo el mar nos ve

1-----------------------
2-----------------------
3-----------------------
4----------------5------
5-----------2-----------
6-------0---------------
para que el brillo del naranja quede quieto
       G                    F#
entre el dibujo de mi beso en tu lunar

1-----------------------
2-----------------------
3-----------------------
4----------------5------
5-----------2-----------
6-------0---------------
Muchacha bella que alborota mi locura

1-----------------------
2-----------------------
3-----------------------
4----------------5------
5-----------3-----------
6-------0---------------
y me desprende hacia las calles de su amor
1-----------------------
2-----------------------
3-----------------------
4----------------5------
5-----------2-----------
6-------0---------------
alli reposo entre sus labios mis secretos
     G                              F#
el pañuelo y las canciones que al quererla le escribi

    G                  F#
No te me pierdas en los miedos que da el aire
    G                  F#
pues si te pierdes se me pierde el corazón
  Am*    D*         G
quedate cerca del calor que da mi abrazo
  F#
para fundirnos entre el humo y la pasion

CORO:

   G                 F#
Muchacha de arenas de italianas playas
   G                 F#                 F#-F#
Muchacha de arenas de italianas playas

1-----------------------
2-----------------------
3-----------------------
4----------------5------
5-----------2-----------
6-------0---------------
como serpientes cruzare tus altos valles

1-----------------------
2-----------------------
3-----------------------
4----------------5------
5-----------3-----------
6-------0---------------
tus cortos río, cicatrices y el jardin

1-----------------------
2-----------------------
3-----------------------
4----------------5------
5-----------2-----------
6-------0---------------
para besar la perla blanca encantadora
       G                F#
que te colocas los domingos al salir
1-----------------------
2-----------------------
3-----------------------
4----------------5------
5-----------2-----------
6-------0---------------
Muchacha bella que alborota mi locura

1-----------------------
2-----------------------
3-----------------------
4----------------5------
5-----------3-----------
6-------0---------------
y me desprende hacia las calles de su amor
1-----------------------
2-----------------------
3-----------------------
4----------------5------
5-----------2-----------
6-------0---------------
alli reposo entre sus labios mis secretos
     G                              F#
el pañuelo y las canciones que al quererla le escribi

  G                     F#
No te me pierdas en los miedos que da el aire
    G                   F#
pues si te pierdes se me pierde el corazón
  Am*    D*         G
quedate cerca del calor que da mi abrazo
  F#
para fundirnos entre el humo y la pasion

  G                     F#
No te me pierdas en los miedos que da el aire
    G                   F#
pues si te pierdes se me pierde el corazón
  Am*    D*         G
deja que caigan suavemente los misterios
  F#
y por tu boca muera el pez y muera yo

CORO:

   G                 F#
Muchacha de arenas de italianas playas
   G                 F#                 F#-F#
Muchacha de arenas de italianas playas
   G                  F#
y por tu boca muera el pez y muera yo
   G                 F#
Muchacha de arenas de italianas playas
   G                 F#
Muchacha de arenas de italianas playas
   G                 F#              F#-F#
Muchacha de arenas de italianas playas


ACORDES:

   Am*             D*
1--5---------------5-----
2--5---------------5-----
3--5---------------7-----
4--7---------------7-----
5--7---------------5-----
6--5---------------5-----

            
            
Suggest correction
Creating personal tab
Creating personal tab
You can edit any tab online and save it as your Personal.

You can edit, replace or remove any tab part or add personal notes – all changes will be seen only by you.

Personal tabs can be accessed anytime from any device, even offline.
Learn more »
Give kudos to tab author, rate the tab!
1 2 3 4 5
comments
print report bad tab
guest
Wanna post a correction for this tab? Suggest correction