Oops, an error
Loading. Please wait.

No Te Das Cuenta tab

29 views 1 this week
no commentswrite comment
1 2 3 4 5
3 more votes to show rating
add to favorites
×
Save as Personal and add changes to this tab that will be seen only by you. Learn more ›
×
You can save this tab as Personal to edit and correct it or add notes. All changes will be seen only by you. Learn more »
launch autoscroll
font size
0
reset
how to read this tab
guitar tuner
edit
Autoscroll
slow
fast
+/-
esc
set tempo
stop
Esta es la correccion de la anterior.

Para los que les gusta esta rola ahi esta completa... al final
hace una acorde dificil de colocar asi que les deje como es la
mejor colocacion.

I= indice  M= medio A= anular(de anillo) m= meñique

Se LA dedico A  MI primo Emiliano Vaughan ya que sacamos esta rola
nos cuadra mucho y es la que mejor se nos oye. Animal!

    Bm     A        G        A         Bm7*   A7*      G7*      A7*
e|--7-7-7--5-5-5-5--3-3-3-3--5-5-5-5---9-9-9--7-7-7-7--5-5-5-5--7-7-7-7---|
B|--7-7-7--5-5-5-5--3-3-3-3--5-5-5-5---7-7-7--5-5-5-5--3-3-3-3--5-5-5-5---|
G|--7-7-7--6-6-6-6--4-4-4-4--6-6-6-6---7-7-7--6-6-6-6--4-4-4-4--6-6-6-6---|
D|--9-9-9--7-7-7-7--5-5-5-5--7-7-7-7---7-7-7--5-5-5-5--3-3-3-3--5-5-5-5---|
A|--9-9-9--7-7-7-7--5-5-5-5--7-7-7-7---9-9-9--7-7-7-7--5-5-5-5--7-7-7-7---|
E|--7-7-7--5-5-5-5--3-3-3-3--5-5-5-5---7-7-7--5-5-5-5--3-3-3-3--5-5-5-5---|

e|---------------------------------------------|
B|---------------------------------------------|
G|--/4---6-----7-----9--7-6-7-6~-7-6-7-6-------|
D|-----4---6/7---7/9---------------------9-7---|
A|---------------------------------------------|
E|---------------------------------------------|

e|-------------------------------------------------|
B|-------------------------------------------------|
G|--/4---6-----7-----9--7-6-7-6~-7-6-7-6-----------|
D|-----4---6/7---7/9---------------------9-7-(7/9)-|
A|-------------------------------------------------|
E|-------------------------------------------------|


 Bm       A             G          A
Cuando vas por la calle, cuando acarreando va la diez,
Bm    A         G       A
aquella gente que va para el brete,
Bm      A             G     A    Bm        A           G           A
siempre te encuentras un agujero, alguien sentado en el banco del miedo,
Bm       A          G         A        F#7
bocas pasándose flores con polvo y amor.

e|------------------------------------------------------------------------|
B|------------------------------------------------------------------------|
G|------7-9--7-6-------------------7-9--7-6-------------------------------|
D|--7-9----------9-8-9-9/11----7-9----------9-8---------------------------|
A|----------------------------------------------10-9----------------------|
E|------------------------------------------------------------------------|


Bm      A              G         A
Cuando vas por las calles, cuando ves los chateles,
Bm        A           G       A
 metiéndose un subidon con su vaso de pega,
Bm      A             G       A
no te das cuenta no, no, no tomas cuenta
Bm       A          G         A
que es una foto de mierda que causa dolor,


Bm      A              G       A
No te das cuenta no, no, no tomas cuenta
Bm         A          G         A
y es que el sistema nos quiere dejar sin pinol,
Bm     A       G       A
suelta tu boca, suelta tus manos
Bm     A              G         A
y que no piensen que pueden domarnos,
Bm       A       G      A
salte a las calles a ver que pasa
Bm          A            G       A
y es que el sistema nos quiere dejar sin pinol.


e|-------------------------------------------------|
B|-------------------------------------------------|
G|--/4---6-----7-----9--7-6-7-6~-7-6-7-6-----------|
D|-----4---6/7---7/9---------------------9-7-(7/9)-|
A|-------------------------------------------------|
E|-------------------------------------------------|


Cuando vas por la calle, cuando acarreando va la diez,
aquella gente que va para el brete,
siempre te encuentras un agujero,
alguien sentado en el banco del miedo,
Bm       A          G         A         Bm-A-G-A
bocas pasándose flores con polvo y amor.


Cuando vas por las calles, cuando ves los chateles,
metiéndose un subidon con su vaso de pega,
no te das cuenta no, no, no tomas cuenta
que es una foto de mierda que causa dolor,


No te das cuenta no, no, no tomas cuenta
y es que el sistema nos quiere dejar sin pinol,
suelta tu boca, suelta tus manos
y que no piensen que pueden domarnos,
salte a las calles a ver que pasa
y es que el sistema nos quiere dejar sin pinol.

Solo:

e|---------------------7-7-7-7-----7-7-7-7-----7-7-7-7-----7-7-7-7--------|
B|---------------------7-7-7-7-----7-7-7-7-----7-7-7-7-----7-7-7-7--------|
G|-/4---6-----7-----9--7-7-7-7-----7-7-7-7-----7-7-7-7-----7-7-7-7--------|
D|----4---6/7---7/9------------8b9---------8b9---------8b9---------8b9----|
A|------------------------------------------------------------------------|
E|------------------------------------------------------------------------|

e|-7-7-7-7--------/7---9------10-------12---14-14-14-14----14-14-14----14-|
B|-7-7-7-7-----------7---9/10----10/12---------------17b19-------17b9-----|
G|-7-7-7-7----------------------------------------------------------------|
D|---------8b9/0----------------------------------------------------------|
A|------------------------------------------------------------------------|
E|------------------------------------------------------------------------|

e|-------14-------14-------14--------19-------19-------19-------19--------|
B|-17b19----17b19----17b19-----22b24----22b24----22b24----22b24----22b24~~|
G|------------------------------------------------------------------------|
D|------------------------------------------------------------------------|
A|------------------------------------------------------------------------|
E|------------------------------------------------------------------------|


Bm         A             G    A
será que al fin se va a cumplir, mi sueño,
Bm      A             G    A
Será que al fin voy a perder, el miedo
Bm          A          G            A
será que el laberinto de tus dientes se abrirá,
Bm        A        G             A
 se abrirá, se abrirá, se abrirá tu mal.


e|-----------------9b10----|
B|-----------10-12---------|
G|----7-9/11---------------|
D|-/9----------------------|
A|-------------------------|
E|-------------------------|

no te das cuenta no, no, no tomas cuenta
que es una foto de mierda que causa dolor,
No te das cuenta no, no, no tomas cuenta
y es que el sistema nos quiere dejar sin pinol,
no te das cuenta no, no, no tomas cuenta
que es una foto de mierda que causa dolor,
y es que el sistema nos quiere dejar sin pinol.


e|--3-2-3-2-3p2--------|
B|--2-2-2-2-2----------|
G|--3-3-3-3-3----------|
D|--2-2-2-2-2----------|
A|--4-4-4-4-4---Etc...-|
E|--2-2-2-2-2----------|

    M I         ºº
    I I        ºº
    A A       ºººººººº esa es la colocación
    I I        ºº
    m m         ºº
    I I


Correcciones preguntas dudas o cualquier mierd@ de guitarra
me pueden escribir a thecool_augusto@hotmail.

     *        *    *****    *******  ***   *****   *****
      *    *  *   *     *      *      *   **      *     *
    *  *  *   *  *   *   *     *      *   *      *   *   *
    *    *    *  *  * *  *     *      *   *      *  * *  *
    *    *    *  *   *   * *   *      *   *      *   *   *
    *         *   *     *  **  *      *   **      *     *
  ***       ***    *****    ****    *****  *****   *****   *

            
            
Suggest correction
Creating personal tab
Creating personal tab
You can edit any tab online and save it as your Personal.

You can edit, replace or remove any tab part or add personal notes – all changes will be seen only by you.

Personal tabs can be accessed anytime from any device, even offline.
Learn more »
Give kudos to tab author, rate the tab!
1 2 3 4 5
comments
print report bad tab
guest
Wanna post a correction for this tab? Suggest correction