Oops, an error
Loading. Please wait.

Romper El Silencio tab

25 views 1 this week
no commentswrite comment
1 2 3 4 5
3 more votes to show rating
add to favorites
×
Save as Personal and add changes to this tab that will be seen only by you. Learn more ›
×
You can save this tab as Personal to edit and correct it or add notes. All changes will be seen only by you. Learn more »
launch autoscroll
font size
0
reset
how to read this tab
guitar tuner
edit
Autoscroll
slow
fast
+/-
esc
set tempo
stop
Intro
1. -----------------------------------------------|
2. --6--6--6--8--8--8--11--11--11--11--10--10-----|
3. -7--7--7--9--9--9--12--12--12---12--10--10-----|
4. -----------------------------------------------|
5. -----------------------------------------------|
6. -----------------------------------------------|

1. -----------------------------------------------|
2. --6--6--6--3--3--3--5--5--5--3p2--3------------|
3. -7--7--7--3--3--3--6--6--6---------------------|
4. -----------------------------------------------|
5. -----------------------------------------------|
6. -----------------------------------------------| X2

Dm7              Em7b5           Amaj7          Dm7
A pesar de tanta sangre que derraman hoy las venas,
Dm7              Em7b5           Amaj7          Dm7
a pesar de tantos gritos que tantas lenguas hablan,
Dm7              Em7b5           Amaj7          Dm7
 a pesar de los desnudos campesinos de la tierra,
Dm7              Em7b5           Amaj7          Dm7
continuamos siempre al margen con los ojos bien cerrados.

Coro:
Dm7              Em7b5          Amaj7     Dm7
Hay que romper el silencio, del silencio tuyo,
Dm7             Em7b5           Amaj7     Dm7
hay que romper el silencio, del silencio tuyo.

1. -----------------------------------------------|
2. --6--6--6--8--8--8--11--11--11--11--10--10-----|
3. -7--7--7--9--9--9--12--12--12---12--10--10-----|
4. -----------------------------------------------|
5. -----------------------------------------------|
6. -----------------------------------------------|

1. -----------------------------------------------|
2. --6--6--6--3--3--3--5--5--5--3p2--3------------|
3. -7--7--7--3--3--3--6--6--6---------------------|
4. -----------------------------------------------|
5. -----------------------------------------------|
6. -----------------------------------------------|

A pesar de la codicia, del gobierno y tu fragancia,
a pesar que en nuestra Iglesia se negocie con dinero,
a pesar de tener miedo porque sabes de un verdugo
que te costura los labios si lo dices por la radio.

Coro:
Dm7              Em7b5          Amaj7     Dm7
Hay que romper el silencio, del silencio tuyo,
Dm7              Em7b5          Amaj7     Dm7
hay que romper el silencio, del silencio tuyo X3

1. -----------------------------------------------|
2. --6--6--6--8--8--8--11--11--11--11--10--10-----|
3. -7--7--7--9--9--9--12--12--12---12--10--10-----|
4. -----------------------------------------------|
5. -----------------------------------------------|
6. -----------------------------------------------|

1. -----------------------------------------------|
2. --6--6--6--3--3--3--5--5--5--3p2--3------------|
3. -7--7--7--3--3--3--6--6--6---------------------|
4. -----------------------------------------------|
5. -----------------------------------------------|
6. -----------------------------------------------|X2

A pesar de tener miedo al mirar por la ventana,
cuanta bala, cuanta sangre, cuanto silencio guardado,
que puedo ser detenido por querer al mismo sexo,
por amar frente a este mundo, mundo de la indiferencia,
no hay que dormirse pensando
que aun hay tiempo para salvar a este mundo
que te esta doliendo, buen hermano, buena amiga,
buena rumba te acompaña, no te olvides de la gente,
no te olvides del consejo.

Coro:
Dm7              Em7b5          Amaj7     Dm7
Hay que romper el silencio, del silencio tuyo,
Dm7              Em7b5          Amaj7     Dm7
hay que romper el silencio, del silencio tuyo  X3

Solo
1. -----------------------------5-5--5-8-8--8-8p10-10--|
2. -3-3--3-5-5--5-6-6--6-8-8--8------------------------|
3. ----------------------------------------------------|
4. ----------------------------------------------------|
5. ----------------------------------------------------|
6. ----------------------------------------------------|

            
            
Suggest correction
Creating personal tab
Creating personal tab
You can edit any tab online and save it as your Personal.

You can edit, replace or remove any tab part or add personal notes – all changes will be seen only by you.

Personal tabs can be accessed anytime from any device, even offline.
Learn more »
Give kudos to tab author, rate the tab!
1 2 3 4 5
comments
print report bad tab
guest
Wanna post a correction for this tab? Suggest correction