Oops, an error
Loading. Please wait.

Toma tab

32 views 1 this week
no commentswrite comment
1 2 3 4 5
3 more votes to show rating
add to favorites
×
Save as Personal and add changes to this tab that will be seen only by you. Learn more ›
×
You can save this tab as Personal to edit and correct it or add notes. All changes will be seen only by you. Learn more »
launch autoscroll
font size
0
reset
how to read this tab
guitar tuner
edit
Autoscroll
slow
fast
+/-
esc
set tempo
stop
SUGERENCIAS O COMENTARIOS A martenos2002@

INTRO

   F#m*          E*          Bm*
1---9-------9---7------7------7-------
2-----10----------9-----------7-------
3--------11---------9---------7-------
4-----------------------------9-------
5-----------------------------9-------
6-----------------------------7------- (2 VECES)


  F#m*     E*                 Bm*
Toma mi mano pa? taparte de otras manos si te hacen mal
 F#m        E*                Bm*
ay dame una razon que me convenza el corazón
 F#m        E*                      Bm*
toma esta canción que voy cantando y es por no llorar
  F#m          E*                   Bm*
pero tu dame, no vale secar lagrimas es mejor volar,es mejor volar
F#m          E*        Bm*
es mejor volar

   F#m*          E*          Bm*
1---9-------9---7------7------7-------
2-----10----------9-----------7-------
3--------11---------9---------7-------
4-----------------------------9-------
5-----------------------------9-------
6-----------------------------7------- (2 VECES)

 F#m*    E*                    Bm*
toma mi talismán y cada una de mis buenas ganas
 F#m*    E*                    Bm*
tu solo dame una razon que me convenza el corazón
 F#m*    E*                    Bm*
toma mi voz para que escuche el que no quiere
 F#m*    E*                    Bm*
pero tu dame, no vale secar lagrimas es mejor volar


 F#m*    E*                    Bm*
toma mi mano si otra te sabe a veneno
             F#m*    E*                    Bm*
no tengas miedo mujer yo alivio tu desconsuelo
F#m*    E*                    Bm*
toma mi mano si otra te sabe a veneno
             F#m*    E*                    Bm*
no tengas miedo mujer yo alivio tu desconsuelo

 A*               E*            Bm*
Mujer porque lloras si tu lo vales
 A*               E*            Bm*
mujer porque tú lloras si lo vales
 A*               E*            Bm*
Mujer porque lloras si tu lo vales
 A*               E*            Bm*
mujer porque tú lloras si lo vales


 F#m*          E*          Bm*
1---9-------9---7------7------7-------
2-----10----------9-----------7-------
3--------11---------9---------7-------
4-----------------------------9-------
5-----------------------------9-------
6-----------------------------7------- (2 VECES)


ESTA PARTE VA TODA CON ESTE BAJO

1-------------------------------
2-------------------------------
3-------------------------------
4-------------------------------
5---4---2-------2h4-------------
6------------4------------------


Ay tantas mujeres que pierden el miedo,
que pierden la vida buscando salir
salir de la nube que atrapa sus vidas
salir de la nube violenta y feroz
toma mi mano si otra te sabe a veneno
si buscas la lluvia que lave tu herida
y el beso que llegue a besar tu razon
ya no tengas miedo morena del cielo
que juntos podemos matar al dragon
toma mi mano si otra te sabe a veneno
toma mi mano si otra te sabe a veneno


 G#m             F#            C#m
Mujer porque lloras si tu lo vales
G#m             F#            C#m
mujer porque tú lloras si lo vales
 G#m             F#            C#m
Mujer porque lloras si tu lo vales
G#m             F#            C#m
mujer porque tú lloras si lo vales

  TOMA,                DAME

F#m*          E*          Bm*
1---9-------9---7------7------7-------
2-----10----------9-----------7-------
3--------11---------9---------7-------
4-----------------------------9-------
5-----------------------------9-------
6-----------------------------7------- (4 VECES)


ACORDES:

   F#m*    E*     Bm*     A*
1---9------7-------7------5---
2---10-----9-------7------5---
3---11-----9-------7------6---
4---11-----9-------9------7---
5---9------7-------9------7---
6---9------7-------7------5---
Suggest correction
Creating personal tab
Creating personal tab
You can edit any tab online and save it as your Personal.

You can edit, replace or remove any tab part or add personal notes – all changes will be seen only by you.

Personal tabs can be accessed anytime from any device, even offline.
Learn more »
Give kudos to tab author, rate the tab!
1 2 3 4 5
comments
print report bad tab
guest
Wanna post a correction for this tab? Suggest correction