Oops, an error
Loading. Please wait.

Good Days tab

1,491 views 1 this week
2 commentsread comments
1 2 3 4 5
2 more votes to show rating
add to favorites
×
Save as Personal and add changes to this tab that will be seen only by you. Learn more ›
×
You can save this tab as Personal to edit and correct it or add notes. All changes will be seen only by you. Learn more »
launch autoscroll
font size
0
reset
how to read this tab
guitar tuner
edit
Autoscroll
slow
fast
+/-
esc
set tempo
stop
Author
Intro
Guitar 1 (Left Side)
e|-----------------------------------------|
B|-----------------------------------------|
G|-1616-1616-1616-1616-1616-1616-1414-1414-|
D|-x-x--x-x--x-x--x-x--x-x--x-x--x-x--x-x--|
A|-1414-1414-1414-1414-1414-1414-1212-1212-|
E|-----------------------------------------|


Verse
Guitar 1 (Left Side)
e|-------------------------------------------------|
B|-------------------------------------------------|
G|-161616-1616-161616-1616-161616-1616-141414-1414-|
D|-x-x-x--x-x--x-x-x--x-x--x-x-x--x-x--x-x-x---x-x-|
A|-141414-1414-141414-1414-141414-1414-121212-1212-|
E|-------------------------------------------------|

Guitar 2 (Right Side)
e|-----------------------------------------|
B|-----------------------------------------|
G|-1616-1616-1616-1616-1616-1616-1414-1414-|
D|-x-x--x-x--x-x--x-x--x-x--x-x--x-x--x-x--|
A|-1414-1414-1414-1414-1414-1414-1212-1212-|
E|-----------------------------------------|


Chorus
Guitar 1
                  (x3)
e|-------------------------------------------------|
B|-------------------------------------------------|
G|-111111-1111-111111-1111-121212-1212-121212-1212-|
D|-x-x-x-x-x-x-x-x-x-x-x-x-x-x-x-x-x-x-x-x-x-x-x-x-|
A|-101010-1010-101010-1010-111111-1111-111111-1111-|
E|-------------------------------------------------|

e|-------------------------------------------------|
B|-------------------------------------------------|
G|-111111-1111-111111-1111-121212-1212-141414-1414-|
D|-x-x-x-x-x-x-x-x-x-x-x-x-x-x-x-x-x-x-x-x-x-x-x-x-|
A|-101010-1010-101010-1010-111111-1111-121212-1212-|
E|-------------------------------------------------|


Guitar 2
                  (x3)
e|------------------------------------------|-----------------------------------------|
B|------------------------------------------|-----------------------------------------|
G|-1111-1111-1111-1111-1212-1212--1212-1212-|-1111-1111-1111-1111-1212-1212-1414-1414-|
D|-x-x--x-x--x-x--x-x--x-x--x-x---x-x--x-x--|-x-x--x-x--x-x--x-x--x-x--x-x---x-x--x-x-|
A|-1010-1010-1010-1010-1111-1111--1111-1111-|-1010-1010-1010-1010-1111-1111-1212-1212-|
E|------------------------------------------|-----------------------------------------|

Repeat Verse and Chorus


3.01 - 3.25
Guitar 1 and 2 play verse


Guitar 3
              (x2)
e|-----------------------------------------|----------------------------------------------|
B|------------------------------------7/8b-|----------------------------------------------|
G|-7--------------------------------7------|-----7---7-9--------7h9--------7h9------------|
D|---9-0-7-9--7-9-0-7-9--7-9-0-7-9---------|-7\9---9------7-9-7------7-9-7----------------|
A|-----------------------------------------|------------------------------------10\9\10\9-|
E|-----------------------------------------|----------------------------------------------|

e|----------------------------------------------|
B|----------------------------------------------|
G|-----7---7-9--------7h9--------7h9--1111-1111-|
D|-7\9---9------7-9-7------7-9-7-------x-x--x-x-|
A|------------------------------------1010-1010-|
E|----------------------------------------------|


Bridge (3.25 - 3.48)
Guitar 1
                     (x3)
e|--------------------------------------------------------------------------|
B|--------------------------------------------------------------------------|
G|-11-11-11-11-11-11-11-11-11-11-11-11--12-12-12-12-12-12-12-12-12-12-12-12-|
D|-x--x--x--x--x--x--x--x--x--x--x--x---x--x--x--x--x--x--x--x--x--x--x--x--|
A|-10-10-10-10-10-10-10-10-10-10-10-10--11-11-11-11-11-11-11-11-11-11-11-11-|
E|--------------------------------------------------------------------------|

e|--------------------------------------------------------------------------|
B|--------------------------------------------------------------------------|
G|-11-11-11-11-11-11-11-11-11-11-11-11--12-12-12-12-12-12-14-14-14-14-14-14-|
D|--x--x--x--x--x--x--x--x--x--x--x--x---x--x--x--x--x--x--x--x--x--x--x--x-|
A|-10-10-10-10-10-10-10-10-10-10-10-10--11-11-11-11-11-11-12-12-12-12-12-12-|
E|--------------------------------------------------------------------------|

Guitar 2 (tremolo)
e|----------------------------------------|
B|----------------------------------------|
G|-11(x80)-12-(x16)-11(x16)-12(x8)-14(x8)-|
D|----------------------------------------|
A|----------------------------------------|
E|----------------------------------------|


Then Guitar 1 and 2 continue to play Verse riff until the end


4.01 - 4.28
Guitar 3
e|-7-----------------------------------------------------------7------------------------|
B|-8-5b----7bh8p7-5~--3-53--------8--------8--------8--3-5-----8-5b----7bh8p7-5\3-------|
G|------5b-----------------555555---555555---555555--------5--------5b------------------|
D|------------------------------------------------------------------------------------5-|
A|--------------------------------------------------------------------------------3-5---|
E|--------------------------------------------------------------------------------------|

e|-------------------------------------77-77-|
B|--------8--------8--------8--3-5-----88-88-|
G|-555555---555555---555555--------5---------|
D|-------------------------------------------|
A|-------------------------------------------|
E|-------------------------------------------|
Suggest correction
Creating personal tab
Creating personal tab
You can edit any tab online and save it as your Personal.

You can edit, replace or remove any tab part or add personal notes – all changes will be seen only by you.

Personal tabs can be accessed anytime from any device, even offline.
Learn more »
Give kudos to tab author, rate the tab!
1 2 3 4 5
comments
print report bad tab
2 comments total.
0 reply
SorryImAwesome. 370 Mar 12, 2010 07:44 AM

In my opinion, the verses should be played like this:

e|-7-7--7-7-| |-5-5--5-5-|
B|-5-5--5-5-| |-3-3--3-3-|
G|-5-5--5-5-| |-4-4--4-4-|
D|----------| |----------|
A|----------| |----------|
E|----------|3x, then |----------|

With a different variation for the chorus. But either way, 5* for the incredible solo/ditty thing. You did awesome.

0 reply
rko 2,128 Mar 12, 2010 05:45 PM

Ah thanks man, yeah it sounds good either way :) thanks for taking the time to rate and comment, really appreciate it, shame there aren't more tabs on here!

guest
You may want to rate the tab now too:
select rating
Wanna post a correction for this tab? Suggest correction