Oops, an error
Loading. Please wait.

Sunshine Tab

1,484 views 1 this week
no commentswrite comment
1 2 3 4 5
not so good
x 1
add to favorites
launch autoscroll
font size
0
reset
how to read this tab
guitar tuner
Tab Pro tools
  • play this tab
  • loop segment
  • change instrument
  • show fretboard
  • metronome
Autoscroll
slow
fast
+/-
esc
set tempo
stop
Contributor
rko

INTRO 0.12-0.35
e---------------------------------------------------------------------------|
B---------------------------------------------------------------------------|
G—0----------------0--------------0-----------------------------------------|
D---0----------------0-------0------0-------------------0-----0-----0-----0-|
A-----2----4-5-4-------2-------0------2-----4-5-4-----4-----4-----4-----4---|
E--------2----------------2--------------2---------5-----5-----5-----5------|

VERSE 0.35-1.23
e-----------------------------------------------------------------------|
B-----------------------------------------------------------------------|
G—0----------------0----------0-----------------------------------------|
D---0----------------0----------0-------------------0-----0-----0-----0-|
A-----2----4-5-4-------2----------2-----4-5-4-----4-----4-----4-----4---|
E--------2----------------2~----------2---------5-----5-----5-----5-----|

CHORUS 1.23-1.47
e------------------|
B------------------|
G------------------|
D-----0------------|
A---4---(x6)-------|
E-3----------7-5-2-|

1.47-2.11
e---------------------------------------------------------------------------|
B---------------------------------------------------------------------------|
G—0----------------0--------------0-----------------------------------------|
D---0----------------0-------0------0-------------------0-----0-----0-----0-|
A-----2----4-5-4-------2-------0------2-----4-5-4-----4-----4-----4-----4---|
E--------2----------------2--------------2---------5-----5-----5-----5------|

Keyboard enters (plays this twice) 1.47-2.10
       X3           then
e-10------------]-------------------|
B----8---7-8-10-]-5~---7~---5~---3~-|
G------7--------]-------------------|
D---------------]-------------------|
A---------------]-------------------|
E---------------]-------------------|


VERSE 2.11-2.59
e-----------------------------------------------------------------------|
B-----------------------------------------------------------------------|
G—0----------------0----------0-----------------------------------------|
D---0----------------0----------0-------------------0-----0-----0-----0-|
A-----2----4-5-4-------2----------2-----4-5-4-----4-----4-----4-----4---|
E--------2----------------2~----------2---------5-----5-----5-----5-----|

CHORUS 2.59-3.22
e------------------|
B------------------|
G------------------|
D-----0------------|
A---4---(x6)-------|
E-3----------7-5-2-|

INSTRUMENTAL BREAK 3.22-3.47
e-----------------------------------------------------------------------|
B-----------------------------------------------------------------------|
G—0----------------0----------0-----------------------------------------|
D---0----------------0----------0-------------------0-----0-----0-----0-|
A-----2----4-5-4-------2----------2-----4-5-4-----4-----4-----4-----4---|
E--------2----------------2~----------2---------5-----5-----5-----5-----|

Guitar 2 enters and plays 3.22-3.47
e---------------------------------------------------|
B---------------------------------------------------|
G---------------------------------------------------|
D-------------------2/4b--------------------------0-|
A-2/4/5/7-5-4---2/4--------2/4/5/7-5-4-----0h2h4----|
E---------------------------------------------------|

e----------------------------|
B----------------------------|
G----------------------------|
D-------------------2/4b-----|
A-2/4/5/7-5-4---2/4--------0-|
E----------------------------|

Keyboard (x2)
e-10-----12-10-9~------|
B----8-7------------5~-|
G----------------------|
D----------------------|
A----------------------|
E----------------------|

(DRUM BREAK)

Both Guitars 3.58-4.46
e----------------------------------|
B----------------------------------|
G-444-----444-----444--------------|
D-444-444-444-444-444-444---777777-|
A-222-444-222-444-222-444---777777-|
E-----222-----222-----222---555555-|

Keyboard 4.22-4.46
       X3     then
e-10---10---]----|
B----8----7-]-5~-|
G-----------]----|
D-----------]----|
A-----------]----|
E-----------]----|

4.46-5.11
e---------------------------------------------------------------------------|
B---------------------------------------------------------------------------|
G—0----------------0--------------0-----------------------------------------|
D---0----------------0-------0------0-------------------0-----0-----0-----0-|
A-----2----4-5-4-------2-------0------2-----4-5-4-----4-----4-----4-----4---|
E--------2----------------2--------------2---------5-----5-----5-----5------|
comments
We did not receive enough feedback on this tab! Please rate:
print report bad tab
1 2 3 4 5
I want to post or [tab]
guest
You may want to rate the tab now too:
select rating
Please do not post tabs as comments. Select "correction" instead!