Oops, an error
Loading. Please wait.

Ghost Dancers Slay Together tab

256 views 12 this week
2 commentsread comments
1 2 3 4 5
2 more votes to show rating
add to favorites
×
Save as Personal and add changes to this tab that will be seen only by you. Learn more ›
×
You can save this tab as Personal to edit and correct it or add notes. All changes will be seen only by you. Learn more »
launch autoscroll
font size
0
reset
how to read this tab
guitar tuner
edit
Autoscroll
slow
fast
+/-
esc
set tempo
stop
Author
Difficulty
PERTURBATOR - Ghost Dancers Slay Together (I am the Night)
Tuning: Standard 


There are a couple of parts of the song (mainly during the chorus) where the 'backing' music is a little 
difficult to figure out in terms of pitch and notation, so the parts transcribed below are mainly the melodic 
parts of synth that make up the main melodies for the track.

[Intro]
[0:04]              [0:18]
e||--------------------|--------------------||
b||--------------------|--------------------||
g||--------------------|--------------------||
d||--------------------|--------------------||
a||--3~----6~----2~----|--3~----6~----2~----||
e||--------------------|--------------------||

[Intro Pt 2]
[0:38]
e||--------------------|----------------------||
b||--------------------|----------------------||
g||--------------------|----------------------||
d||--5~----------8~----|--5~----------8~--4~--||  X2
a||--3~----------6~----|--3~----------6~--2~--||
e||--3~----------6~----|--3~----------6~--2~--||

[Intro Pt 3]
[1:10]
e||--------------------|--------------------|--------------------|--------------------||
b||--------------------|--------------------|--------------------|--------------------||
g||--------------------|--------------------|--------------------|--------------------||
d||--3~----------------|--3~----------------|--3~----------------|--3~----------------||
a||--1~----------------|--1~----------------|--1~----------------|--1~----------------||
e||--1~----------------|--1~----------------|--1~----------------|--1~----------------||
     
[Verse 1]
[1:25]
e||---------------------------------------------------------------------||
b||-------------------------4-/8----------------------------------------||
g||--------5----5---------5------7----------5----5----------------------||
d||--6--5----5----5--6--5-------------6--5----5----5--6--5--3-/5----3~--||   X2
a||--------------------------------------------------------------/6-----||
e||---------------------------------------------------------------------||

[Chorus]
[1:57]
e||------------------------|------------------------||
b||---------8-11-13--------|--/13------/11-----9\8~-||
g||--5-8-10----------------|------12~------8~-------||
d||-----------------10~----|------------------------||    X2
a||------------------------|------------------------||
e||------------------------|------------------------||

[Verse 2]
[2:27]
e||---------------------------------------------------------------------||
b||-------------------------4-/8----------------------------------------||
g||--------5----5---------5------7----------5----5----------------------||
d||--6--5----5----5--6--5-------------6--5----5----5--6--5--3-/5----3~--||   X2
a||--------------------------------------------------------------/6-----||
e||---------------------------------------------------------------------||

[Chorus]
[2:59]
e||------------------------|------------------------||
b||---------8-11-13--------|--/13------/11-----9\8~-||
g||--5-8-10----------------|------12~------8~-------||
d||-----------------10~----|------------------------||    X2
a||------------------------|------------------------||
e||------------------------|------------------------||

[Bridge]
[3:31]
e||--------------------|--------------------|--------------------|--------------------||
b||--------------------|--------------------|--------------------|--------------------||
g||--------------------|--------------------|--------------------|--------------------||
d||--3~----------------|--3~----------------|--5~----------------|--5~----------------||
a||--1~----------------|--1~----------------|--3~----------------|--3~----------------||
e||--1~----------------|--1~----------------|--3~----------------|--3~----------------||


e||--------------------|--------------------|--------------------||
b||--------------------|--------------------|--------------------||
g||--------------------|--------------------|--------------------||
d||--3~----------------|--3~----------------|--------------------||
a||--1~----------------|--1~----------------|--3~----6~----2~----||
e||--1~----------------|--1~----------------|--------------------||

[Verse 3]
[4:01]
e||---------------------------------------------------------------------||
b||-------------------------4-/8----------------------------------------||
g||--------5----5---------5------7----------5----5----------------------||
d||--6--5----5----5--6--5-------------6--5----5----5--6--5--3-/5----3~--||   X2
a||--------------------------------------------------------------/6-----||
e||---------------------------------------------------------------------||

[Chorus]
[4:34]
e||------------------------|------------------------||
b||---------8-11-13--------|--/13------/11-----9\8~-||
g||--5-8-10----------------|------12~------8~-------||
d||-----------------10~----|------------------------||    X2
a||------------------------|------------------------||
e||------------------------|------------------------||

[Outro]
[5:06]
e||--------------------|--------------------||
b||--------------------|--------------------||
g||--------------------|--------------------||
d||--------------------|--------------------||
a||--3~----6~----2~----|--3~----6~----2~----||
e||--------------------|--------------------||

[5:38] - (Fade out to thunder)

e||--------------------||
b||--------------------||
g||--------------------||
d||--------------------||
a||--3~----6~----2~----||
e||--------------------||



************************************

| ~  Vibrato
| /  Slide up
| \  Slide down

************************************

            
            
Suggest correction
Creating personal tab
Creating personal tab
You can edit any tab online and save it as your Personal.

You can edit, replace or remove any tab part or add personal notes – all changes will be seen only by you.

Personal tabs can be accessed anytime from any device, even offline.
Learn more »
Give kudos to tab author, rate the tab!
1 2 3 4 5
comments
print report bad tab
2 comments total.
+1 reply
wasethan 10 Mar 27, 2017 08:26 PM

I'm honestly surprised someone put out a good Pert. tab! mayhaps you could try tabbing out sexualizer next?

guest
You may want to rate the tab now too:
select rating
Wanna post a correction for this tab? Suggest correction