Oops, an error
Loading. Please wait.

Loco bass

by Pesado
197 views 3 this week
no commentswrite comment
1 2 3 4 5
3 more votes to show rating
add to favorites
×
Save as Personal and add changes to this tab that will be seen only by you. Learn more ›
×
You can save this tab as Personal to edit and correct it or add notes. All changes will be seen only by you. Learn more »
launch autoscroll
font size
0
reset
guitar tuner
edit
Autoscroll
slow
fast
+/-
esc
set tempo
stop
Bueno pues este es mi primer aporte como músico entre "",
espero que sea de su agrado
y pues qui esta.

Intro


G)-9-7-5-12---------7-7------7-7------9-9-------9-9----------
D)-9-7-5-12-------------7-4-----7-4------9----------9--------
A)-7-5-3-10-2-3-4-5--------5--------7-----10--7-------10--5--
E)-8-6-4-11--------------------------------------------------


G)--7-7--------7-7----------9-9------------------
D)-----7-4---------7-4---------9-------------4---
A)--------5------------7--------10--7--5--7------
E)---------------------------------------------3-


Inicio de la letra

Verso 1

G)---------------------7-7-------7-7-------5-5-------
D)-5-5-------5-5-----------7-4-------7-4-------5-2---
A)-----5-2-------3-4-5---------5---------3---------3-
E)---------3-----------------------------------------

G)-5-5------------------7-7--------
D)----3-4-5--5-5-4-----------------
A)-----------------7-5------5-6-7--
E)---------------------------------

G)-9-9--------9-9--------7-7-------7-7-------5-5-------
D)-----9----------9----------7-4-------7-4-------5-2---
A)-------10-7-------10-5---------5---------3---------3-
E)-----------------------------------------------------

G)--5-5---------------------------
D)------3-4-5-5-5------------4----
A)----------------5-2----5-7------
E)--------------------3--------3--

Verso 2


G)---------------------7-7-------7-7-------5-5-------
D)-5-5-------5-5-----------7-4-------7-4-------5-2---
A)-----5-2-------3-4-5---------5---------3---------3-
E)---------3-----------------------------------------

G)-5-5------------------7-7--------
D)----3-4-5--5-5-4-----------------
A)-----------------7-5------5-6-7--
E)---------------------------------

G)-9-9--------9-9--------7-7-------7-7-------5-5-------
D)-----9----------9----------7-4-------7-4-------5-2---
A)-------10-7-------10-5---------5---------3---------3-
E)-----------------------------------------------------

G)--5-5---------------------------
D)------3-4-5-5-5------------4----
A)----------------5-2----5-7------
E)--------------------3--------3--

Puente

G)-----------4-5-7-9-7----9-7-----7(6)---------------
D)----4-5-7------------10-----10---------------------
A)--7------------------------------------------------
E)---------------------------------------------------

Coro

G)-----------------------------
D)------5------5---------------
A)-2(3)---2(3)----2(3)-2-3-4-5-
E)-2(3)---2(3)----2(3)---------

G)--7-7------7-7------9-9-------9-9-------7-7-------------
D)-----7-4------7-4------9---------9---------7-4--------4-
A)---------5--------7------10-7------10-5--------5--5-7---
E)--------------------------------------------------------

G)----------------------------
D)------5------5--------------
A)-2(3)---2(3)---2(3)-2-3-4-5-
E)-2(3)---2(3)---2(3)---------


G)--7-7-------7-7------9-9-------9-9-------7-7-------------
D)------7-4-------7-4-----9---------9---------7-4--------4-
A)----------5---------7-----10-7------10-5--------5--5-7---
E)---------------------------------------------------------


Inter

G)---------------------7-7--------7-7-------5-5-------
D)---5-5-------------------7-4--------7-4-------5-2---
A)-------5-2---2-3-4-5---------5----------3---------3-
E)-3---------3----------------------------------------

G)--5-5--------------------------
D)------3-4-5--5-5---------------
A)-----------------5-2---2-3-4-5-
E)---------------------3---------


G)-------------------------------------------------------------
D)--5(7)    --7(9)    --5(7)    -----4-5-5-5-------5-5---------
A)--4(6) X4 --6(8) X4 --4(6) X3 ---7---------7-7-5------5-6-7--
E)--4(6)    --6(8)    --4(6)    -------------------------------

Pre coro

G)--9-9---------9-9--------7-7--------7----------
D)------9-----------9----------7-4---------4-5-7-
A)--------10-7--------10-5---------5----7--------
E)-----------------------------------------------

G)--7-7-------5-5-------------------
D)-----7-4--------3-4-5-5-5-4-------
A)---------3------------------7-5---
E)----------------------------------

Puente

G)-----------4-5-7-9-7----9-7-----7(6)---------------
D)----4-5-7------------10-----10---------------------
A)--7------------------------------------------------
E)---------------------------------------------------

Coro
G)-----------------------------
D)------5------5---------------
A)-2(3)---2(3)----2(3)-2-3-4-5-
E)-2(3)---2(3)----2(3)---------

G)--7-7------7-7------9-9-------9-9-------7-7-------------
D)-----7-4------7-4------9---------9---------7-4--------4-
A)---------5--------7------10-7------10-5--------5--5-7---
E)--------------------------------------------------------

G)----------------------------
D)------5------5--------------
A)-2(3)---2(3)---2(3)-2-3-4-5-
E)-2(3)---2(3)---2(3)---------


G)--7-7-------7-7------9-9-------9-9-------7-7-------------
D)------7-4-------7-4-----9---------9---------7-4--------4-
A)----------5---------7-----10-7------10-5--------5--5-7---
E)---------------------------------------------------------

Inter

G)---------------------7-7--------7-7-------5-5-------
D)---5-5-------------------7-4--------7-4-------5-2---
A)-------5-2---2-3-4-5---------5----------3---------3-
E)-3---------3----------------------------------------

G)--5-5--------------------------
D)------3-4-5--5-5---------------
A)-----------------5-2---2-3-4-5-
E)---------------------3---------

Final

G)-------------------------------------------------------------
D)--5(7)    --7(9)    --5(7)    -------------------------------
A)--4(6) X4 --6(8) X4 --4(6) X5 -2-3-4-5-----------------------
E)--4(6)    --6(8)    --4(6)    -----------5-7-4---------------


G)-------------------------------------------------------------
D)--5(7)    --7(9)    --5(7)    -------------------------------
A)--4(6) X4 --6(8) X4 --4(6) X5 -2-3-4-5-----------------------
E)--4(6)    --6(8)    --4(6)    -----------5-7-4---------------


Bueno pues es todo, soy nuevo así que me parece que tiene algunos
errores por ay, esta tab la saque de un video y pues no sean tan
duros con sus criticas, soy un novato con el bass.

aqui el link del video:  
mi correo: antonios_rosas@
suerte
Suggest correction
Creating personal tab
Creating personal tab
You can edit any tab online and save it as your Personal.

You can edit, replace or remove any tab part or add personal notes – all changes will be seen only by you.

Personal tabs can be accessed anytime from any device, even offline.
Learn more »
Give kudos to tab author, rate the tab!
1 2 3 4 5
comments
print report bad tab
guest
Wanna post a correction for this tab? Suggest correction