Oops, an error
Loading. Please wait.

Algo Flota En La Laguna chords

180 views 1 this week
no commentswrite comment
1 2 3 4 5
3 more votes to show rating
add to favorites
×
Save as Personal and add changes to this tab that will be seen only by you. Learn more ›
×
You can save this tab as Personal to edit and correct it or add notes. All changes will be seen only by you. Learn more »
launch autoscroll
font size
0
reset
transpose
0
reset
simplify chords
display chords
guitar tuner
edit
Autoscroll
slow
fast
+/-
esc
set tempo
stop
Strumming
There is no strumming pattern for this song yet. and get +5 IQ
Intro: Riff1

A5             C5   A5  C5
Algo flota en la laguna
  A5           C5  A5  C5
tiene forma indefinida,
  A5             C5   A5  C5
y al hombre que pasa cerca
 A5          C5      A5  C5
con su rayo lo enloquece.

A5 C5 Riff2

Para el timpo de la pesca
todo ya estará perdido,
hay un monstru en la laguna,
tonto es el que quiera echarlo

[D5  C5  Bb5  A5] base del solo

Bb/D        A(#5)/C#            G5
    La caridad del universo es falsa, falsa
Bb/D          A(#5)/C#      G5
    la tempestad se cogerá nidos

[Em7/9  Dmaj7  Riff3]x2

Nunca se sabrá la causa
de la voz de la leyenda,
para mi que la laguna
lleva su venganza a cabo.

  Riff1
e|----------------------------------------||
B|----------------------------------------||
G|----------------------------------------||
D|-2-2--5-5--2-2--2-2--0-0-------0-0------||
A|-0-0--3-3--0-0------------3-3-------3-3-||
E|----------------------------------------||

  Riff2                              Riff3
e|-----------------------------||  e|---------------||
B|-----------------------------||  B|---------------||
G|---7-9-7-5-------------------||  G|---------------||
D|-5---------7-5-------------2-||  D|---------------||
A|-5-------------7-6-5-3-----2-||  A|---------------||
E|-3---------------------5-3-0-||  E|-0-1/2/3-4-5-5-||

            
            
Suggest correction
Creating personal tab
Creating personal tab
You can edit any tab online and save it as your Personal.

You can edit, replace or remove any tab part or add personal notes – all changes will be seen only by you.

Personal tabs can be accessed anytime from any device, even offline.
Learn more »
Give kudos to tab author, rate the tab!
1 2 3 4 5
comments
print report bad tab
guest
Wanna post a correction for this tab? Suggest correction