Oops, an error
Loading. Please wait.

Cementerio Club bass

version 1
version 1

Whole song

  • This is the bass tab for the song.

Interactive

58 views 6 this week
no commentswrite comment
1 2 3 4 5
3 more votes to show rating
add to favorites
×
Save as Personal and add changes to this tab that will be seen only by you. Learn more ›
×
You can save this tab as Personal to edit and correct it or add notes. All changes will be seen only by you. Learn more »
launch autoscroll
font size
0
reset
guitar tuner
edit
Autoscroll
slow
fast
+/-
esc
set tempo
stop
About this tab version
This is the bass tab for the song. Was this info helpful? Yes No
“Justo que pensaba, en vos nena…                           cai
G|---------------------------------------------4------------------2-------|
D|---------------5----------------5----------4----4------------4----4--5--|
A|--------5-----------------5--------5|2---------------5|2----------------|
E|-3-----------------3----------------------------------------------------|
   -                 -                 -                 -
muerto”
G|------------------------------------------------------------------------|
D|----------------5--4---4------------4-----------------------------------|
A|----------2--5-------------------4--------------------------------------|
E|-3-------------------------2--5------3-----3--3-----3--2-----2--2-----2-|
   -                 -                 -                 -
G|-----------------------------------|
D|-----------------------------------|
A|---------------------------------5-|
E|-3-----3--3-----3--2----2--2-------|
   -                 -                 -                 -
           “Que le dio al pequeño Dios del centro gris…               del
G|---------------------------------------------------------------4---4----|
D|-5-----------------------------5--4-----------4-------------------4---4-|
A|---------5------------------5--------2-----------------2----------------|
E|-------------------3----------------------------------------------------|
   -                 -                 -                 -
abismo”
G|------------------------------------------------------------------------|
D|-5---------------5-4---4---7--4-----------------------------------------|
A|-----------2--5---------------------------------------------------------|
E|--------3----------------------------3-----3--3-----3--2-----2--2-----2-|
   -                 -                 -                 -
G|-------------------3-------------3---------------------4-----2-----------|
D|------------------3-----------3--------------1----1/4-----------4--------|
A|---------------------------1---------2---------------------------------2-|
E|-3-----3--3--------------------------------------------------------------|
   -                 -                 -                 -
G|------------------------------------------------------------------------|
D|-2-----------------------------------------------------------------9----|
A|----------5--------4-------5------7----------6------9---------6/9-----9-|
E|-------------------------------------7-----------------7----------------|
   -                 -                 -                 -
            “Solo se que…    a quien duerme”
G|------------------------------------------------------------------------|
D|-----------------------------------------------4-----------------4------|
A|-4------4------4---2-------4-----------------4-----------------4------6-|
E|------4---4--4---4-----------------0|2-----------------2----------------|
   -                 -                 -                 -
            “Solo se que…    a quien duerme”
G|-------------------------------------------------------------------------|
D|--------6-------6------------------------------4-------------4-4-4--5--6-|
A|-4---------4--4----2-------4--6--------------4-------------4-------------|
E|-----------------------------------0|2---------------0|2-----------------|
   -                 -                 -                 -
G|-------------------------------------------------------------------------|
D|-------------------------------------------------------------------------|
A|------7--------9---9-9----9---9/----------7--------9---9-9----9---9------|
E|-5--5---5-7--7---7------9---9--------5--5---5-7--7---7------9---9---10/d-|
   -                 -                 -                 -
G|-------------------------------------------------------------------------|
D|-------------------------------------------------------------------------|
A|------7--------9---9------9---9-----------7--------9---9-----------------|
E|-5--5---5-7--7---7------9---9-----9/d5--5---5-7--7---------------------9-|
   -                 -                 -                 -
2:03       “Oye dime nena,         ¿a donde ves ahora algo en mi que no de-
G|---------------------------------------------4--------------------------|
D|-------------------5-------------5---------4----4---------------4-------|
A|----------5----------------5-------5|2-----------------2-----------2--4-|
E|-3----------------------------3-----------------------------------------|
   -                 -                 -                 -
  testes”
G|------------------------------2-----------------------------------------|
D|-5------------------------2h4-----4-------------------------------------|
A|--------5---------------------------------------------------------------|
E|----------3------0-2-----------------3-----3--3-----3--2-----2--2-----2-|
   -                 -                 -                 -
G|-------------------------------------------------------------------------|
D|----------------8--8--------------8--------------------9-------7---------|
A|---------------8----------8----8--------------6---6/9-------------9------|
E|-3---3--3/6-6--------------6---------7---------------------------------7-|
   -                 -                 -                 -
G|-------------------------------------------------------------------------|
D|-------------------------------------------------------------------------|
A|-7--------5--------4-------5------7----------6------9---------6--9--6--6-|
E|-------------------------------------7-----------------7-----------------|
            “Que solo y… en este cementerio”
G|-------------------------------------------------------------------------|
D|-----------------------------------------------4--------------4----------|
A|-------11------11/d--------------------------4--------------4----2--3----|
E|-9---------9--9----7-------9---------2---------------0|2---------------4-|
   -                 -                 -                 -
            “Que calor hara…     en verano”
G|-------------------------------------------------------------------------|
D|-------6-------6------------4-------------------4----------------4--5--6-|
A|-4--------4--4---4-2------------4-------------4--------------------------|
E|-----------------------------------0|2---------------0|2-----------------|
   -                 -                 -                 -
G|-------------------------------------------------------------------------|
D|--------------------------11-----------------------------------11--------|
A|------7--------9---9---9-----9|7-9-7------7--------9---9---9-12--9-------|
E|-5--5---5-7--7---7---7---------------5--5---5-7--7---7---7--------12-9-7-|
   -                 -                 -                 -
G|------------------------------------------------------------------------|
D|-------------------------(4)------4-------------------------------------|
A|------7--------9---9------9----4----2-----7--------9---9----------------|
E|-5--5---5-7--7---7---------2---------5------5-7------7------------------|
   -                 -                 -                 -
3:36
G|-------------------7----------------------------------------------------|
D|----------6-----9----------9--6---------------1-----4-------------------|
A|-------------------------------------2-----------------2---2--2|5--4--5-|
E|-0----------------------------------2-----------------------------------|
   -                 -                 -                 -
3:48
G|-------------------------------------------------------------------------|
D|---------------------------------9-------------------------------------7-|
A|-7-------5---------4---4---5-7/9----6---------6---9---9-------------9----|
E|--------5---------4--4---4-----------7-----------------7---7--7|10-------|
   -                 -                 -                 -
4:00
G|-------------------------------------------------------------------------|
D|-------------------------------------------------------9------7----------|
A|-9-------9-----9---7--------5-----------------6-----9------------9--7----|
E|--------7---9------------------------7---------------------------------7-|
   -                 -                 -                 -
4:11
G|-------------------------------------------------------------------------|
D|------------------------6----6------------------------------------9h11---|
A|-7-------5---------4-------4----5--7----------6-----9------5/9-12------9-|
E|--------5---------4------------------7-----------------7-----------------|
   -                 -                 -                 -
4:23
G|------------------------------------------------------------------------|
D|----------------------------------7--------------------------------10---|
A|-7-------5---------4---------7h9--------------6-----9--------9--12----9-|
E|--------5---------4-------4h7--------7-----------------7----------------|
   -                 -                 -                 -
4:35
G|------------------------------------------------------------------------|
D|---------------------------------------------------------------9---9----|
A|-9-------9------9--7---------5----5-----------6------9------------9---9-|
E|--------7--9---9------------5--------7-----------------7----------------|
   -                 -                 -                 -
4:46
G|------------------------------------------------------------------------|
D|----------------------------7--9----------------------------------------|
A|----------5--------4-------6------9-----------6-------------------------|
E|-0-------5--------4------------------7----------------------------------|
   -                 -                 -                 -
Notes:
The dashes indicates the beginning of a new bar
Notas:
Los guiones están puestos para indicar el comienzo de un nuevo compas

  h: hammer on (ligado)
  /: slide up (arrastrar)
 /d: slide down (arrastrar “hacia atrás”)
*|*: Play the notes fast (tocar ambas notas consecutivamente rapido)

            
            
Suggest correction
Creating personal tab
Creating personal tab
You can edit any tab online and save it as your Personal.

You can edit, replace or remove any tab part or add personal notes – all changes will be seen only by you.

Personal tabs can be accessed anytime from any device, even offline.
Learn more »
Give kudos to tab author, rate the tab!
1 2 3 4 5
comments
print report bad tab
guest
You may want to rate the tab now too:
select rating
Wanna post a correction for this tab? Suggest correction