Oops, an error
Loading. Please wait.

Despiertate Nena chords

version 1
version 1

Whole song

316 views 1 this week
no commentswrite comment
1 2 3 4 5
3 more votes to show rating
add to favorites
×
Save as Personal and add changes to this tab that will be seen only by you. Learn more ›
×
You can save this tab as Personal to edit and correct it or add notes. All changes will be seen only by you. Learn more »
launch autoscroll
font size
0
reset
transpose
0
reset
simplify chords
display chords
guitar tuner
edit
Autoscroll
slow
fast
+/-
esc
set tempo
stop
Strumming
There is no strumming pattern for this song yet. and get +5 IQ
Riff en E
        
        Em7
E|-------0--------------------------------------------------------|
B|-------3--------------------------------------------------------|
G|-------0--------------------------------------------------------|
D|-------2--------------------------------------------------------|
A|-------2--------------------------------------------------------|
E|--0--0-0--0-3-5-------------------------------------------------|


Riff en A

        Am7

E|-------3--------------------------------------------------------|
B|-------1--------------------------------------------------------|
G|-------0--------------------------------------------------------|
D|-------2--------------------------------------------------------|
A|--0--0-0--0-3-5-------------------------------------------------|
E|----------------------------------------------------------------|


Riff Em7
Despiertate nena
sube al rayo al fin
        Riff Am7
Ya despiertate nena
                  Riff Emt7
sube al rayo al fin
         B5 C5            D5            Riff Em7
y asi veras   lo bueno y dulce que es amar

despiertate rayo
sube a la nena

ya despiertate rayo
sube a la nena

y asi veras
lo bueno y dulce que es amar

(solo de guitarra)

Despiertate nena
sube al rayo al fin

Ya despiertate nena
sube al rayo al fin

y asi veras
lo bueno y dulce que es vivir

(solo de organo)

repite 

final

            
            
Suggest correction
Creating personal tab
Creating personal tab
You can edit any tab online and save it as your Personal.

You can edit, replace or remove any tab part or add personal notes – all changes will be seen only by you.

Personal tabs can be accessed anytime from any device, even offline.
Learn more »
Give kudos to tab author, rate the tab!
1 2 3 4 5
comments
print report bad tab
guest
Wanna post a correction for this tab? Suggest correction