Oops, an error
Loading. Please wait.

Serpiente (Viaja Por La Sal) tab

289 views 1 this week
no commentswrite comment
1 2 3 4 5
3 more votes to show rating
add to favorites
×
Save as Personal and add changes to this tab that will be seen only by you. Learn more ›
×
You can save this tab as Personal to edit and correct it or add notes. All changes will be seen only by you. Learn more »
launch autoscroll
font size
0
reset
how to read this tab
guitar tuner
edit
Autoscroll
slow
fast
+/-
esc
set tempo
stop
Buen simple del ?72 de pescado...

d-------------/
a---10-9--7-7-/  X5
E---8--7--5-5-/

e----------5------/
b----------5------/
g----------5------/
d---10-9--7---7-7-/
a---10-9--7---7-7-/
E---8--7--5---5-5-/

En el tibio día,
de la luz,
anda la serpiente,
por la sal...

Nadie la acomete, a irse...
LA serpiente viaja,
sin cesar...

Am!

Bajo:   |E-A|

E-0-3-/

Con un poco de wah-wah

e----8-5----------------------------------------/
b---x----8-5------------------------------------/
g--x---------7---7p5-------5h7p5----7///9-9~8~7~/
d-x------------------7-5-7------7---------------/
a-----------------------------------------------/
E-----------------------------------------------/

Dm
    Y en el nuevo día,
Dm7
    labios sin tiempo...
Am          Am/G
    nubes vienen...
Fmaj7/C
    trayendo mensajes,
E | E7 | E7
    de puerca, puerca, puerca... ahhhhh!
e----------5-5-----/
b----------5-5-----/
g----------5-5-----/
d---10-9--7----7-7-/
a---10-9--7----7-7-/
E---8--7--5----5-5-/


e----------5------/
b----------5------/
g----------5------/
d---10-9--7---7-7-/
a---10-9--7---7-7-/
E---8--7--5---5-5-/


Día de las lilas,
vas a hablar,
LA serpiente viaja,
por la sal...
nadie la acomete, a irse,
LA serpiente viaja,
por la sal...

Am!

Bajo:   |E-A|

E-0-3-/

Con un poco de wah-wah

e----8-5----------------------------------------/
b---x----8-5------------------------------------/
g--x---------7---7p5-------5h7p5----7///9 ~~~~~-/
d-x------------------7-5-7------7---------------/
a-----------------------------------------------/
E-----------------------------------------------/

Dm
   Y en el nuevo día,
Dm7
   del ocaso...
Am          Am/G
   nubes vendrán...
Fmaj7/C                 E | E7 | E7
   trayendo mensajes...

e----8-5--------------------------------5--/
b---x----8-5----------------------------5--/
g--x---------7---7p5-------5h7p5----9-7-5--/
d-x------------------7-5-7------7-------7--/
a---------------------------------------7--/
E-----------------------------------8-7-5--/

e----------5------/
b----------5------/
g----------5------/
d---10-9--7---7-7-/
a---10-9--7---7-7-/
E---8--7--5---5-5-/


|G|Dm|G|Dm|


e----------5------/
b----------5------/
g----------5------/
d---10-9--7---7-7-/
a---10-9--7---7-7-/
E---8--7--5---5-5-/


||solo||

||+ solo||

e----------------------------------/
b----------------------------------/
g----------------------------------/
d----------------------------------/
a-0--5-5s9-7-5-3s4-3--3-2-(0)------/
E----------------------------------/

|G|Dm|G|Dm|

e----------5------/
b----------5------/
g----------5------/
d---10-9--7---7-7-/
a---10-9--7---7-7-/
E---8--7--5---5-5-/

En el agua clara, del sol,
todos se lamentan,
por el bien...
unos en el cuerpo,
van a ver,
que la serpiente viaja,
por la sal...

Am!

Bajo:   |E-A|

E-0-3-/

e----8-5----------------------------------------/
b---x----8-5------------------------------------/
g--x---------7---7p5-------5h7p5----7///9 ~~~~~-/
d-x------------------7-5-7------7---------------/
a-----------------------------------------------/
E-----------------------------------------------/

Dm
Y el ocaso viaja
Dm7
viaja como el tiempo
Am          Am/G
y las nubes vendrán....
Fmaj7/C          E | E7 | E7
trayendo mensajes...

e----8-5--------------------------------5--/
b---x----8-5----------------------------5--/
g--x---------7---7p5-------5h7p5----9-7-5--/
d-x------------------7-5-7------7-------7--/
a---------------------------------------7--/
E-----------------------------------8-7-5--/

Termina en Am..

Cualquier duda a peavey_raptorplus@

            
            
Suggest correction
Creating personal tab
Creating personal tab
You can edit any tab online and save it as your Personal.

You can edit, replace or remove any tab part or add personal notes – all changes will be seen only by you.

Personal tabs can be accessed anytime from any device, even offline.
Learn more »
Give kudos to tab author, rate the tab!
1 2 3 4 5
comments
print report bad tab
guest
Wanna post a correction for this tab? Suggest correction