Oops, an error
Loading. Please wait.

Sombras De La Noche Negra bass

47 views 1 this week
no commentswrite comment
1 2 3 4 5
3 more votes to show rating
add to favorites
×
Save as Personal and add changes to this tab that will be seen only by you. Learn more ›
×
You can save this tab as Personal to edit and correct it or add notes. All changes will be seen only by you. Learn more »
launch autoscroll
font size
0
reset
guitar tuner
edit
Autoscroll
slow
fast
+/-
esc
set tempo
stop
G|--------------------------------------------------------
D|--------------------------------------------------------
A|-7-------------7-------------7-------------7------------
E|-0-------------0-------------0-------------0----------5\

                                  (7 veces)
?Hoy aquí?          ?en la selva estoy?
G|------------------------|------------------------|
D|------------------------|------------------------|
A|------------------------|-7----------------------|
E|-0---3---2---2|2-2|0--0-|-----3---2---2|2-2|0--0-|

        ?suave suave nena?              ?yo te quiero mostrar?
G|---------------------------------------------------------------
D|--------------------------------5--5|5-5|5-5|5-5|5-5|5-5|5-5|5-
A|-7-7|7-7|7-7|7-7|7-7|7-7|7-7|7---------------------------------
E|---------------------------------------------------------------

        ?luces de la noche?      ?ah!
G|----------------------------------------------------------------------
D|----------------------------------------------------------------------
A|-3-3|3-3|3-3|3-3|3-3|3-3|3-3|3--5--5--5--5--5--5--5--5--5-------------
E|----------------------------------------------------------------------

                                (3 veces)
G|------------------------|-------------------|
D|------------------------|-------------------|
A|------------------------|-------------------|
E|-0---3---2---2|2-2|0----|-0---3---2---2--2--|

0:58
                                  (7 veces)
G|------------------------|------------------------|
D|------------------------|------------------------|
A|------------------------|-7----------------------|
E|-0---3---2---2|2-2|0--0-|-----3---2---2|2-2|0--0-|

G|---------------------------------------------------------------
D|--------------------------------5--5|5-5|5-5|5-5|5-5|5-5|5-5|5-
A|-7-7|7-7|7-7|7-7|7-7|7-7|7-7|7---------------------------------
E|---------------------------------------------------------------

G|----------------------------------------------------------------------
D|--------------------------------7-------------------------------------
A|-3-3|3-3|3-3|3-3|3-3|3-3|3-3|3--5-------------------------------------
E|----------------------------------------------------------------------

G|--------------------------------------------------------
D|--------------------------------------------------------
A|-7-------------7-------------7-------------7-----------7
E|-0-------------0-------------0-------------0---------5--

                                  (7 veces)
G|------------------------|------------------------|
D|------------------------|------------------------|
A|------------------------|-7----------------------|
E|-0---3---2---2|2-2|0--0-|-----3---2---2|2-2|0--0-|

G|---------------------------------------------------------------
D|--------------------------------5--5|5-5|5-5|5-5|5-5|5-5|5-5|5-
A|-7-7|7-7|7-7|7-7|7-7|7-7|7-7|7---------------------------------
E|---------------------------------------------------------------

G|----------------------------------------------------------------------
D|--------------------------------7-------------------------------------
A|-3-3|3-3|3-3|3-3|3-3|3-3|3-3|3--5-------------------------------------
E|----------------------------------------------------------------------

G|--------------------------------------------------------
D|--------------------------------------------------------
A|-7-------------7-------------7-------------7------------
E|-0-------------0-------------0-------------0------------

                                  (11 veces)
G|------------------------|------------------------|
D|------------------------|------------------------|
A|------------------------|-7----------------------|
E|-0---3---2---2|2-2|0--0-|-----3---2---2|2-2|0--0-|

        ?lejos de la sombra?            ?en algun lugar?
G|---------------------------------------------------------------
D|--------------------------------5--5|5-5|5-5|5-5|5-5|5-5|5-5|5-
A|-7-7|7-7|7-7|7-7|7-7|7-7|7-7|7---------------------------------
E|---------------------------------------------------------------

        ?danzan ceremonias?              ?vudues?
G|----------------------------------------------------------------------
D|--------------------------------7-------------------------------------
A|-3-3|3-3|3-3|3-3|3-3|3-3|3-3|3--5-------------------------------------
E|----------------------------------------------------------------------

G|--------------------------------------------------------
D|--------------------------------------------------------
A|-7-------------7-------------7-------------7------------
E|------------------------------------------------------5\

        (36 veces)
G|------------------------|
D|------------------------|
A|------------------------|
E|-0---3---2---2|2-2|0--0-|

G|-----------------------------------------------------------------------------
D|-----------------------------------------------------------------------------
A|-7------------7------------7------------7------------7------------7----------
E|-0------------0------------0------------0------------0------------0----------

G|-----------------------------------------------------------------------------
D|-----------------------------------------------------------------------------
A|-7--------------------------------7----------7-------------7-----------------
E|-0------------0-0-0-0-0-0-0-0-0-?-0----------0-------------0-----------------


   /: slide up (?arrastrar? hacia adelante)
x|x : tocar las dos notas consecutivamente rápido por Ej. 3|3

Sombra de la noche negra (Amaya-Spinetta)

Hoy aquí en la selva estoy
El rumor me llega
Veo nacer una sombra de pie
lejos está el sol de siempre
y la sombra dice:
suave suave nena
yo te quiero mostrar luces de la noche
¡Ah!
Nunca fue igual esta jungla de hoy
El calor, una bola de piedra
Veo clamar una sombra
Debo tener a mis huesos
Lejos de la sombra, en algún lugar danzan
ceremonias vudúes

            
            
Suggest correction
Creating personal tab
Creating personal tab
You can edit any tab online and save it as your Personal.

You can edit, replace or remove any tab part or add personal notes – all changes will be seen only by you.

Personal tabs can be accessed anytime from any device, even offline.
Learn more »
Give kudos to tab author, rate the tab!
1 2 3 4 5
comments
print report bad tab
guest
Wanna post a correction for this tab? Suggest correction