Oops, an error
Loading. Please wait.

Maria Juana tab

version 1
version 1

Whole song

15 views 1 this week
no commentswrite comment
1 2 3 4 5
3 more votes to show rating
add to favorites
×
Save as Personal and add changes to this tab that will be seen only by you. Learn more ›
×
You can save this tab as Personal to edit and correct it or add notes. All changes will be seen only by you. Learn more »
launch autoscroll
font size
0
reset
how to read this tab
guitar tuner
edit
Autoscroll
slow
fast
+/-
esc
set tempo
stop
Los signos de admiración significan la dirección del pick.

! Pick hacia abajo
¡ Pick hacia arriba


INTRO

E ---------------------------------------------------
A ---------------------------------------------------
D ---------------------------------------------------
G --14---14-14-14-14-14-14-14-14-14---11--10--11-----
B --13---13-13-13-13-13-13-13-13-13---12--11--12-----
e --12---12-12-12-12-12-12-12-12-12---13--12--13-----
    !    !  ¡   !  ¡  !  ¡  !  ¡  !


Luego entra el bajo y hace algo como esto
E --0--3--5---------------------------------------
A -------------------------------------------------
D -------------------------------------------------

VERSO  1
 Juana con sus malas mañas,    y sus artimañas cochina,
E 5----------------------------------------------------
A 7---------------7---------7--------------------------
D 7-----------------9----9--9--------------------------
G --------------------9-----9--------------------------
B -----------------------------------------------------
e -----------------------------------------------------


  me la en enreda y me engaña, Juana    venenosa   araña
E --5----5---------------------55x55x55x55x55x--------------------
A ---7---7---------------------77x77x77x77x77x-----------7-----7--
D ----7--7---------------------77x77x77x77x77x-------------9-9-9--
G ----------------------------------------------------------9--9--
B ----------------------------------------------------------------
                               !¡ !¡ !¡ !¡ !¡
La x significa que apaga las cuerdas


Peligrosa inmunda tu rumba me lleva a la tumba
E --------------------------------5------------------------
A -----77x77x77x77x77x77x77x77------7----------------------
D -----99x99x99x99x99x99x99x99-------7---------------------
G -----99x99x99x99x99x99x99x99-----------------------------
B ---------------------------------------------------------
e ---------------------------------------------------------

PRE-CORO
   Ya  no  quiero  más      de     ti
E -----------------------------------------------
A -----------------------------------------------
D -----------------------------------------------
G -----------------------------------------------
B 1313131313131313131313---12--12-12-------------
e 1212121212121212121212---11--10-11-------------
  !¡!¡!¡!¡!¡!¡!¡!¡!¡!¡!¡

Eres una sucia, tramposa                  eres poca cosa
E -------------------------------------------------------
A -------------------------------------------------------
D -------------------------------------------------------
G -------------------------------------------------------
B --------1313131313131313131313--12-121212-12-----------
e --------1212121212121212121212--11-101010-11-----------
          !¡!¡!¡!¡!¡!¡!¡!¡!¡!¡!¡     ! ¡  !
  Mira  que   yo      ya     aprendí
E -----------------------------------------------
A -----------------------------------------------
D -----------------------------------------------
G -----------------------------------------------
B 1313131313131313131313---12--12-12-------------
e 1212121212121212121212---11--10-11-------------
  !¡!¡!¡!¡!¡!¡!¡!¡!¡!¡!¡
Que comer por la noche los frijoles me cae mal a mí
E ----------------------------------5------------5---
A ----------------------------------7------7-----7---
D ----------------------------------7------9-----7---
G -----------------------------------------9---------
B --------1313131313131313131313---------------------
E --------1212121212121212121212---------------------
          !¡!¡!¡!¡!¡!¡!¡!¡!¡!¡!¡


CORO
  Juanita bonita, del dulce de tus besos
E ---------------------5-------------
A 5--------------------7-------------
D 7--------------------7-------------
G 7--------------------5-------------
B 6---------------------------
E 5---------------------------
    Del verde de tus ojos, si te vi ya ni me acuerdo
E --------------------------------5--------------
A -------7------------------------7--------------
D -------9------------------------7--------------
G -------9------------------------5--------------
B  ------7---------------------------------------
E  ----------------------------------------------
 Juanita bonita, del dulce de tus besos
E --------------------5------------
A 5-------------------7------------
D 7-------------------7------------
G 7-------------------5------------
B 6---------------------------
E 5---------------------------
  Del verde de tus ojos, que se pudra en el infierno
E -------------------------------5---------------------
A -----7-------------------------7------------------5--
D -----9-------------------------7------------------7--
G -----9-------------------------5------------------7--
B  ----7--------------------------------------------6--
E  -------------------------------------------------5--

E --0-3-5---------------------------------------
A -----------------------------------------------
D -----------------------------------------------


VERSO 2
Hace lo mismo que en el verso 1 pero rasgueando en cada nota
Juana, ya no vales nada,
No doy por tus besos tres pesos, me duelen los huesos
Juana, lo podrido daña
Me voy por tus juegos, no hay fuego, no escucho tus ruegos.


PRECORO

  Ya  yo  me olvide        de        ti
E -----------------------------------------------
A -----------------------------------------------
D -----------------------------------------------
G -----------------------------------------------
B 1313131313131313131313---121212-12-12----------
e 1212121212121212121212---111111-10-11----------
  !¡!¡!¡!¡!¡!¡!¡!¡!¡!¡!¡

 Encontré un lucero,    que quiero,      un amor sincero
E -----------------------------------------------
A -----------------------------------------------
D -----------------------------------------------
G -----------------------------------------------
B -----------131313131313--121212-12-12----------
e -----------121212121212--111111-10-11----------
             !¡!¡!¡!¡!¡!¡   ! ¡ !
 Me       dolió     pero      aprendí
E -----------------------------------------------
A -----------------------------------------------
D -----------------------------------------------
G -----------------------------------------------
B 1313131313131313131313---12--12-12-------------
e 1212121212121212121212---11--10-11-------------
  !¡!¡!¡!¡!¡!¡!¡!¡!¡!¡!¡
 Que comer por la noche los frijoles me cae mal a mí
E -----------------------------------5------------5------------
A -----------------------------------7-------7----7------------
D -----------------------------------7-------9----7------------
G -------------------------------------------9-----------------
B ---------1313131313131313131313------------------------------
E ---------1212121212121212121212------------------------------
           !¡!¡!¡!¡!¡!¡!¡!¡!¡!¡!¡
CORO X4

Al final dice

    Que se pudra en el infierno
E ----------------------------------------------------------
A ---------------------------------------------------14b15--
D -------------------------------3-4-----------------12b13--
G -----------------------------------4-5-------------13b14--
B  ---------------------------------------------------------
E  ---------------------------------------------------------
Suggest correction
Creating personal tab
Creating personal tab
You can edit any tab online and save it as your Personal.

You can edit, replace or remove any tab part or add personal notes – all changes will be seen only by you.

Personal tabs can be accessed anytime from any device, even offline.
Learn more »
Give kudos to tab author, rate the tab!
1 2 3 4 5
comments
print report bad tab
guest
Wanna post a correction for this tab? Suggest correction