Oops, an error
Loading. Please wait.

Mi Tesoro tab

version 1
version 1

Whole song

75 views 1 this week
no commentswrite comment
1 2 3 4 5
3 more votes to show rating
add to favorites
×
Save as Personal and add changes to this tab that will be seen only by you. Learn more ›
×
You can save this tab as Personal to edit and correct it or add notes. All changes will be seen only by you. Learn more »
launch autoscroll
font size
0
reset
how to read this tab
guitar tuner
edit
Autoscroll
slow
fast
+/-
esc
set tempo
stop
Intro
Ps hay les va el intro de esta canción q me gusta mucho espero les guste

e------------5----------------------5-------------
B---------8-----8----------------7-----7----------
G------7-----------7~---------7-----------7~------
D---5----------------------5----------------------
A-------------------------------------------------
E-------------------------------------------------

e------------3----------------------3-----------3-3h2---
B---------3-----3----------------3-----3--------------3-
G------5-----------5~---------5-----------5~------------
D---5----------------------5----------------------------
A-------------------------------------------------------
E-------------------------------------------------------

YO LO QUE QUIERO ES TOMARTE LA MANO - QUE PASE EL TIEMPO Y SEGUIR A TU LADO

e------------5----------------------5-------------
B---------8-----8----------------7-----7----------
G------7-----------7~---------7-----------7~------
D---5----------------------5----------------------
A-------------------------------------------------
E-------------------------------------------------

QUE NADA ROBE NUESTRO SENTIMIENTO - SENTIR POR SIEMPRE TU AMOR TAN INMENSO

e------------3----------------------3-----------3-3h2---
B---------3-----3----------------3-----3--------------3-
G------5-----------5~---------5-----------5~------------
D---5----------------------5----------------------------
A-------------------------------------------------------
E-------------------------------------------------------


YO LO QUE QUIERO ES CUBRIRME EN TU ABRIGO - CERRAR LOS OJOS Y VERTE CONMIGO

e------------5----------------------5-------------
B---------8-----8----------------7-----7----------
G------7-----------7~---------7-----------7~------
D---5----------------------5----------------------
A-------------------------------------------------
E-------------------------------------------------

QUE TU CALOR QUEME EL DOLOR QUE SIENTO - SOLO TU AMOR CURA MI SUFRIMIENTO

e------------3----------------------3-------------------
B---------3-----3----------------3-----3----------------
G------5-----------5~---------5-----------5-------------
D---5----------------------5----------------------------
A-------------------------------------------------------
E-------------------------------------------------------

Cualquier duda titanmar15@

            
            
Suggest correction
Creating personal tab
Creating personal tab
You can edit any tab online and save it as your Personal.

You can edit, replace or remove any tab part or add personal notes – all changes will be seen only by you.

Personal tabs can be accessed anytime from any device, even offline.
Learn more »
Give kudos to tab author, rate the tab!
1 2 3 4 5
comments
print report bad tab
guest
Wanna post a correction for this tab? Suggest correction