Oops, an error
Loading. Please wait.

Lost Souls Tab

version 1
version 1

Solo

Interactive

176 views 1 this week
no commentswrite comment
1 2 3 4 5
3 more votes to show rating
add to favorites
launch autoscroll
font size
0
reset
how to read this tab
guitar tuner
Autoscroll
slow
fast
+/-
esc
set tempo
stop
Help us to improve Ultimate-Guitar.com Take our survey!
×
Author
Difficulty
novice
Solo
Guitar 1
|--------------------------------------------------------------|
|---------------------------7-6---------------------------7-6--|
|------------8-7--------6-7----------------8-7--------6-7------|
|--6-4-6-8-9------9-7-9----------6-4-6-8-9------9-7-9----------|
|--------------------------------------------------------------|
|--------------------------------------------------------------|

|-------------------------------------------------------------|
|-------------------------------------------------------------|
|--------------7tr--6tr---------------------7tr--6tr----------|
|-6tr-----8tr------------9--7--6tr-----8tr------------9--7----|
|-------------------------------------------------------------|
|-------------------------------------------------------------|

|--9----8--------12---11-------|
|--12b--11b------15b--14b------|
|------------------------------|
|------------------------------|
|------------------------------|
|------------------------------|

Guitar 1
|--20b--19b---18-16------------------------------20b--20~--|
|-------------------19-18-16-------------------------------|
|----------------------------18-17-15----------------------|
|-------------------------------------18-17-16-------------|
|----------------------------------------------------------|
|----------------------------------------------------------|

Guitar 3 (not sure probably)
|--17b--16b---15-13----------------------------------------|
|-------------------16-15-13-------------------------------|
|----------------------------15-14-12----------------------|
|-------------------------------------15-14-13-------------|
|----------------------------------------------------------|
|----------------------------------------------------------|


|--16--17h19-18~--20b--20~--23b-23~---|
|-------------------------------------|
|-------------------------------------|
|-------------------------------------|
|-------------------------------------|
|-------------------------------------|
Suggest correction
Give kudos to tab author, rate the tab!
1 2 3 4 5
comments
print report bad tab
guest
You may want to rate the tab now too:
select rating
Wanna post a correction for this tab? Suggest correction