Oops, an error
Loading. Please wait.

Out Of The Body Tab

version 1
version 1

Whole song

Interactive

4,932 views 6 this week
no commentswrite comment
1 2 3 4 5
1 last vote to show rating
add to favorites
launch autoscroll
font size
0
reset
how to read this tab
guitar tuner
×
Best way to learn
"Out Of The Body"
Autoscroll
slow
fast
+/-
esc
set tempo
stop
Difficulty
intermediate
PM PM PM PM PM PM PM PM PM  
     Q.     E  E  E  E  S  S  E  S  S  S  S  E   
e|---------------------------------------------|
B|---------------------------------------------|
G|---------------------------------------------|
D|--6------6--5--3-----------------------------|
A|--6------6--5--3-----------------------------|
E|--4------4--3--1--0--0--0--0--0--0--0--0--0--|

                    PM PM PM PM PM PM PM PM PM  
    Q.     E  E  E  E  S  S  E  S  S  S  S  E   
e|---------------------------------------------|
B|---------------------------------------------|
G|---------------------------------------------|
D|--6------6--5--3-----------------------------|
A|--6------6--5--3-----------------------------|
E|--4------4--3--1--0--0--0--0--0--0--0--0--0--|

                     PM PM PM PM PM PM PM PM PM  
     Q.     E  E  E  E  S  S  E  S  S  S  S  E   
e|----------------------------------------------|
B|----------------------------------------------|
G|*---------------------------------------------|
D|*--6------6--5--3-----------------------------|
A|---6------6--5--3-----------------------------|
E|---4------4--3--1--0--0--0--0--0--0--0--0--0--|

                    PM PM PM PM PM PM PM PM PM  
    Q.     E  E  E  E  S  S  E  S  S  S  S  E   
e|---------------------------------------------|
B|---------------------------------------------|
G|---------------------------------------------|
D|--6------6--5--3-----------------------------|
A|--6------6--5--3-----------------------------|
E|--4------4--3--1--0--0--0--0--0--0--0--0--0--|

                    PM PM PM PM PM PM PM PM PM  
    Q.     E  E  E  E  S  S  E  S  S  S  S  E   
e|---------------------------------------------|
B|---------------------------------------------|
G|---------------------------------------------|
D|--6------6--5--3-----------------------------|
A|--6------6--5--3-----------------------------|
E|--4------4--3--1--0--0--0--0--0--0--0--0--0--|

                    PM PM PM PM PM PM PM PM PM                            
    Q.     E  E  E  E  S  S  E  S  S  S  S  E       Q.     E  E  E  Q     
e|----------------------------------------------|-----------------------|
B|----------------------------------------------|-----------------------|
G|---------------------------------------------*|-----------------------|
D|--6------6--5--3-----------------------------*|--6------6--5--3--2----|
A|--6------6--5--3------------------------------|--6------6--5--3--2----|
E|--4------4--3--1--0--0--0--0--0--0--0--0--0---|--4------4--3--1--0----|

                                                        PM PM PM PM PM  
    W                   W                     Q    Q    E  S  S  E  E   
e|-------------------|-------------------|----------------------------|
B|-------------------|-------------------|----------------------------|
G|-------------------|-------------------|*---------------------------|
D|--L----------------|--L----------------|*--5----4-------------------|
A|--L----------------|--L----------------|----------------------------|
E|--L----------------|--L----------------|-------------0--0--0--0--0--|

              PM PM PM PM PM              PM PM PM PM PM  
    Q    Q    E  S  S  E  E     Q    Q    E  S  S  E  E   
e|---------------------------|---------------------------|
B|---------------------------|---------------------------|
G|---------------------------|---------------------------|
D|---------------------------|--5----4-------------------|
A|--6----5-------------------|---------------------------|
E|------------0--0--0--0--0--|------------0--0--0--0--0--|

                                           PM PM PM PM PM PM PM PM PM  
    Q    Q    Q    Q     (4x)  Q.     E  E  E  E  S  S  E  S  S  S  S  E   
e|-----------------------|---------------------------------------------|
B|-----------------------|---------------------------------------------|
G|----------------------*|---------------------------------------------|
D|-----------------4----*|--6------6--5--3-----------------------------|
A|--6----5----6----------|--6------6--5--3-----------------------------|
E|-----------------------|--4------4--3--1--0--0--0--0--0--0--0--0--0--|

                    PM PM PM PM PM PM PM PM PM  
    Q.     E  E  E  E  S  S  E  S  S  S  S  E   
e|---------------------------------------------|
B|---------------------------------------------|
G|---------------------------------------------|
D|--6------6--5--3-----------------------------|
A|--6------6--5--3-----------------------------|
E|--4------4--3--1--0--0--0--0--0--0--0--0--0--|

                    PM PM PM PM PM PM PM PM PM  
    Q.     E  E  E  E  S  S  E  S  S  S  S  E   
e|---------------------------------------------|
B|---------------------------------------------|
G|---------------------------------------------|
D|--6------6--5--3-----------------------------|
A|--6------6--5--3-----------------------------|
E|--4------4--3--1--0--0--0--0--0--0--0--0--0--|

                    PM PM PM PM PM PM PM PM PM  
    Q.     E  E  E  E  S  S  E  S  S  S  S  E   
e|---------------------------------------------|
B|---------------------------------------------|
G|---------------------------------------------|
D|--6------6--5--3-----------------------------|
A|--6------6--5--3-----------------------------|
E|--4------4--3--1--0--0--0--0--0--0--0--0--0--|

                    PM PM PM PM PM PM PM PM PM  
    Q.     E  E  E  E  S  S  E  S  S  S  S  E   
e|---------------------------------------------|
B|---------------------------------------------|
G|---------------------------------------------|
D|--6------6--5--3-----------------------------|
A|--6------6--5--3-----------------------------|
E|--4------4--3--1--0--0--0--0--0--0--0--0--0--|

                    PM PM PM PM PM PM PM PM PM  
    Q.     E  E  E  E  S  S  E  S  S  S  S  E   
e|---------------------------------------------|
B|---------------------------------------------|
G|---------------------------------------------|
D|--6------6--5--3-----------------------------|
A|--6------6--5--3-----------------------------|
E|--4------4--3--1--0--0--0--0--0--0--0--0--0--|

                    PM PM PM PM PM PM PM PM PM  
    Q.     E  E  E  E  S  S  E  S  S  S  S  E   
e|---------------------------------------------|
B|---------------------------------------------|
G|---------------------------------------------|
D|--6------6--5--3-----------------------------|
A|--6------6--5--3-----------------------------|
E|--4------4--3--1--0--0--0--0--0--0--0--0--0--|

                                            PM PM PM PM PM       
    Q.     E  E  E  E.  E.  E.  E.     Q    E  S  S  E  E  Q     
e|----------------------------------|---------------------------|
B|----------------------------------|---------------------------|
G|----------------------------------|---------------------------|
D|--6------6--5--3--5---5---8---8---|---------------------------|
A|--6------6--5--3--3-------6-------|--4-------------------4----|
E|--4------4--3--1------------------|-------2--2--2--2--2-------|

         PM PM PM PM PM              PM PM PM PM PM         
    Q    E  S  S  E  E  Q       Q    E  S  S  E  E  E   E   
e|---------------------------|-----------------------------|
B|---------------------------|-----------------------------|
G|---------------------------|-----------------------------|
D|---------------------------|-----------------------------|
A|--5-------------------4----|--3-------------------4p--0--|
E|-------2--2--2--2--2-------|-------2--2--2--2--2---------|

                                        PM PM PM PM PM       
    E   E  E   E  E   E  E   E     Q    E  S  S  E  E  Q     
e|------------------------------|---------------------------|
B|------------------------------|---------------------------|
G|------------------------------|---------------------------|
D|------------------------------|---------------------------|
A|--5p--0--6p--0--5p--0--4p--0--|--4-------------------4----|
E|------------------------------|-------2--2--2--2--2-------|

         PM PM PM PM PM              PM PM PM PM PM         
    Q    E  S  S  E  E  Q       Q    E  S  S  E  E  E   E   
e|---------------------------|-----------------------------|
B|---------------------------|-----------------------------|
G|---------------------------|-----------------------------|
D|---------------------------|-----------------------------|
A|--5-------------------4----|--3-------------------4p--0--|
E|-------2--2--2--2--2-------|-------2--2--2--2--2---------|

                                        PM PM PM PM PM       
    E   E  E   E  E   E  E   E     Q    E  S  S  E  E  Q     
e|------------------------------|---------------------------|
B|------------------------------|---------------------------|
G|------------------------------|---------------------------|
D|------------------------------|---------------------------|
A|--5p--0--6p--0--5p--0--4p--0--|--3-------------------3----|
E|------------------------------|-------1--1--1--1--1-------|

         PM PM PM PM PM              PM PM PM PM PM         
    Q    E  S  S  E  E  Q       Q    E  S  S  E  E  E   E   
e|---------------------------|-----------------------------|
B|---------------------------|-----------------------------|
G|---------------------------|-----------------------------|
D|---------------------------|-----------------------------|
A|--4-------------------3----|--2-------------------3p--0--|
E|-------1--1--1--1--1-------|-------1--1--1--1--1---------|

                                        PM PM PM PM PM       
    E   E  E   E  E   E  E   E     Q    E  S  S  E  E  Q     
e|------------------------------|---------------------------|
B|------------------------------|---------------------------|
G|------------------------------|---------------------------|
D|------------------------------|---------------------------|
A|--4p--0--5p--0--4p--0--3p--0--|--3-------------------3----|
E|------------------------------|-------1--1--1--1--1-------|

         PM PM PM PM PM              PM PM PM PM PM         
    Q    E  S  S  E  E  Q       Q    E  S  S  E  E  E   E   
e|---------------------------|-----------------------------|
B|---------------------------|-----------------------------|
G|---------------------------|-----------------------------|
D|---------------------------|-----------------------------|
A|--4-------------------3----|--2-------------------3p--0--|
E|-------1--1--1--1--1-------|-------1--1--1--1--1---------|

                                                   PM PM PM PM PM PM PM PM PM  
    E   E  E   E  E   E  E   E     Q.     E  E  E  E  S  S  E  S  S  S  S  E   
e|------------------------------|---------------------------------------------|
B|------------------------------|---------------------------------------------|
G|------------------------------|---------------------------------------------|
D|------------------------------|--6------6--5--3-----------------------------|
A|--4p--0--5p--0--4p--0--3p--0--|--6------6--5--3-----------------------------|
E|------------------------------|--4------4--3--1--0--0--0--0--0--0--0--0--0--|

                    PM PM PM PM PM PM PM PM PM  
    Q.     E  E  E  E  S  S  E  S  S  S  S  E   
e|---------------------------------------------|
B|---------------------------------------------|
G|---------------------------------------------|
D|--6------6--5--3-----------------------------|
A|--6------6--5--3-----------------------------|
E|--4------4--3--1--0--0--0--0--0--0--0--0--0--|

                    PM PM PM PM PM PM PM PM PM  
    Q.     E  E  E  E  S  S  E  S  S  S  S  E   
e|---------------------------------------------|
B|---------------------------------------------|
G|---------------------------------------------|
D|--6------6--5--3-----------------------------|
A|--6------6--5--3-----------------------------|
E|--4------4--3--1--0--0--0--0--0--0--0--0--0--|


    Q.     E  E  E  E.  E.  E.  E.   
e|----------------------------------|
B|----------------------------------|
G|----------------------------------|
D|--6------6--5--3--5---5---8---8---|
A|--6------6--5--3--3-------6-------|
E|--4------4--3--1------------------|

                    PM PM PM PM PM PM PM PM PM  
    Q.     E  E  E  E  S  S  E  S  S  S  S  E   
e|---------------------------------------------|
B|---------------------------------------------|
G|---------------------------------------------|
D|--6------6--5--3-----------------------------|
A|--6------6--5--3-----------------------------|
E|--4------4--3--1--0--0--0--0--0--0--0--0--0--|

                    PM PM PM PM PM PM PM PM PM  
    Q.     E  E  E  E  S  S  E  S  S  S  S  E   
e|---------------------------------------------|
B|---------------------------------------------|
G|---------------------------------------------|
D|--6------6--5--3-----------------------------|
A|--6------6--5--3-----------------------------|
E|--4------4--3--1--0--0--0--0--0--0--0--0--0--|

                    PM PM PM PM PM PM PM PM PM  
    Q.     E  E  E  E  S  S  E  S  S  S  S  E   
e|---------------------------------------------|
B|---------------------------------------------|
G|---------------------------------------------|
D|--6------6--5--3-----------------------------|
A|--6------6--5--3-----------------------------|
E|--4------4--3--1--0--0--0--0--0--0--0--0--0--|

                                            PM PM PM PM PM PM PM PM PM PM PM PM  
    Q.     E  E  E  E.  E.  E.  E.     Q    S  S  S  S  S  S  S  S  S  S  S  S   
e|----------------------------------|-------------------------------------------|
B|----------------------------------|-------------------------------------------|
G|----------------------------------|-------------------------------------------|
D|--6------6--5--3--5---5---8---8---|-------------------------------------------|
A|--6------6--5--3--3-------6-------|--7----------------------------------------|
E|--4------4--3--1------------------|-------0--0--0--0--0--0--0--0--0--0--0--0--|

         PM PM      PM PM                PM PM PM PM PM PM PM PM PM PM PM PM  
    Q    S  S  Q    S  S  Q       E   E  S  S  S  S  S  S  S  S  S  S  S  S   
e|-----------------------------|---------------------------------------------|
B|-----------------------------|---------------------------------------------|
G|-----------------------------|---------------------------------------------|
D|-----------------------------|---------------------------------------------|
A|--5----------5----------5----|--5h--8--------------------------------------|
E|-------0--0-------0--0-------|---------0--0--0--0--0--0--0--0--0--0--0--0--|

                                       PM PM PM PM PM PM PM PM PM PM PM PM  
  |--------3--------|                                                     
    H        H        H           Q    S  S  S  S  S  S  S  S  S  S  S  S   
e|-----------------------------|-------------------------------------------|
B|-----------------------------|-------------------------------------------|
G|-----------------------------|-------------------------------------------|
D|-----------------------------|-------------------------------------------|
A|--8--------5--------7--------|--6----------------------------------------|
E|-----------------------------|-------0--0--0--0--0--0--0--0--0--0--0--0--|

         PM PM      PM PM                PM PM PM PM PM PM PM PM PM PM PM PM  
    Q    S  S  Q    S  S  Q       E   E  S  S  S  S  S  S  S  S  S  S  S  S   
e|-----------------------------|---------------------------------------------|
B|-----------------------------|---------------------------------------------|
G|-----------------------------|---------------------------------------------|
D|-----------------------------|---------------------------------------------|
A|--5----------5----------5----|--5h--8--------------------------------------|
E|-------0--0-------0--0-------|---------0--0--0--0--0--0--0--0--0--0--0--0--|

                                       PM PM PM PM PM PM PM PM PM PM PM PM  
    |--------3--------|                                                     
    H        H        H           Q    S  S  S  S  S  S  S  S  S  S  S  S   
e|-----------------------------|-------------------------------------------|
B|-----------------------------|-------------------------------------------|
G|-----------------------------|-------------------------------------------|
D|-----------------------------|-------------------------------------------|
A|--8--------5--------7--------|--7----------------------------------------|
E|-----------------------------|-------0--0--0--0--0--0--0--0--0--0--0--0--|

         PM PM      PM PM                PM PM PM PM PM PM PM PM PM PM PM PM  
    Q    S  S  Q    S  S  Q       E   E  S  S  S  S  S  S  S  S  S  S  S  S   
e|-----------------------------|---------------------------------------------|
B|-----------------------------|---------------------------------------------|
G|-----------------------------|---------------------------------------------|
D|-----------------------------|---------------------------------------------|
A|--5----------5----------5----|--5h--8--------------------------------------|
E|-------0--0-------0--0-------|---------0--0--0--0--0--0--0--0--0--0--0--0--|

                                       PM PM PM PM PM PM PM PM PM PM PM PM  
    |--------3--------|                                                     
    H        H        H           Q    S  S  S  S  S  S  S  S  S  S  S  S   
e|-----------------------------|-------------------------------------------|
B|-----------------------------|-------------------------------------------|
G|-----------------------------|-------------------------------------------|
D|-----------------------------|-------------------------------------------|
A|--8--------5--------7--------|--6----------------------------------------|
E|-----------------------------|-------0--0--0--0--0--0--0--0--0--0--0--0--|

         PM PM      PM PM                PM PM PM PM PM PM PM PM PM PM PM PM  
    Q    S  S  Q    S  S  Q       E   E  S  S  S  S  S  S  S  S  S  S  S  S   
e|-----------------------------|---------------------------------------------|
B|-----------------------------|---------------------------------------------|
G|-----------------------------|---------------------------------------------|
D|-----------------------------|---------------------------------------------|
A|--5----------5----------5----|--5h--8--------------------------------------|
E|-------0--0-------0--0-------|---------0--0--0--0--0--0--0--0--0--0--0--0--|

                                       PM PM PM PM PM PM PM PM PM PM PM PM  
    |--------3--------|                                                     
    H        H        H           Q    S  S  S  S  S  S  S  S  S  S  S  S   
e|-----------------------------|-------------------------------------------|
B|-----------------------------|-------------------------------------------|
G|-----------------------------|-------------------------------------------|
D|-----------------------------|-------------------------------------------|
A|--8--------5--------7--------|--7----------------------------------------|
E|-----------------------------|-------0--0--0--0--0--0--0--0--0--0--0--0--|

         PM PM      PM PM                PM PM PM PM PM PM PM PM PM PM PM PM  
    Q    S  S  Q    S  S  Q       E   E  S  S  S  S  S  S  S  S  S  S  S  S   
e|-----------------------------|---------------------------------------------|
B|-----------------------------|---------------------------------------------|
G|-----------------------------|---------------------------------------------|
D|-----------------------------|---------------------------------------------|
A|--5----------5----------5----|--5h--8--------------------------------------|
E|-------0--0-------0--0-------|---------0--0--0--0--0--0--0--0--0--0--0--0--|
 
                                       PM PM PM PM PM PM PM PM PM PM PM PM  
    |--------3--------|                                                     
    H        H        H           Q    S  S  S  S  S  S  S  S  S  S  S  S   
e|-----------------------------|-------------------------------------------|
B|-----------------------------|-------------------------------------------|
G|-----------------------------|-------------------------------------------|
D|-----------------------------|-------------------------------------------|
A|--8--------5--------7--------|--6----------------------------------------|
E|-----------------------------|-------0--0--0--0--0--0--0--0--0--0--0--0--|

         PM PM      PM PM                PM PM PM PM PM PM PM PM PM PM PM PM  
    Q    S  S  Q    S  S  Q       E   E  S  S  S  S  S  S  S  S  S  S  S  S   
e|-----------------------------|---------------------------------------------|
B|-----------------------------|---------------------------------------------|
G|-----------------------------|---------------------------------------------|
D|-----------------------------|---------------------------------------------|
A|--5----------5----------5----|--5h--8--------------------------------------|
E|-------0--0-------0--0-------|---------0--0--0--0--0--0--0--0--0--0--0--0--|

    |--------3--------|                                                 
    H        H        H           W                   W                 
e|-----------------------------|--7----------------|--L----------------|
B|-----------------------------|--5----------------|--L----------------|
G|-----------------------------|-------------------|-------------------|
D|-----------------------------|-------------------|-------------------|
A|--8--------5--------7--------|-------------------|-------------------|
E|-----------------------------|-------------------|-------------------|

    W                   W                   W                   W                 
e|--6----------------|--L----------------|--7----------------|--L----------------|
B|--4----------------|--L----------------|--5----------------|--L----------------|
G|-------------------|-------------------|-------------------|-------------------|
D|-------------------|-------------------|-------------------|-------------------|
A|-------------------|-------------------|-------------------|-------------------|
E|-------------------|-------------------|-------------------|-------------------|

    W                   W                   W                   W                 
e|--8----------------|--L----------------|--7----------------|--L----------------|
B|--6----------------|--L----------------|--5----------------|--L----------------|
G|-------------------|-------------------|-------------------|-------------------|
D|-------------------|-------------------|-------------------|-------------------|
A|-------------------|-------------------|-------------------|-------------------|
E|-------------------|-------------------|-------------------|-------------------|

    W                   W                   W                   W                 
e|--6----------------|--L----------------|--7----------------|--L----------------|
B|--4----------------|--L----------------|--5----------------|--L----------------|
G|-------------------|-------------------|-------------------|-------------------|
D|-------------------|-------------------|-------------------|-------------------|
A|-------------------|-------------------|-------------------|-------------------|
E|-------------------|-------------------|-------------------|-------------------|

                                                     PM         
    W                   W                   H        Q    Q     
e|--8----------------|--L----------------|---------------------|
B|--6----------------|--L----------------|---------------------|
G|-------------------|-------------------|---------------------|
D|-------------------|-------------------|--1-------------2----|
A|-------------------|-------------------|--1-------------2----|
E|-------------------|-------------------|-----------0---------|

         PM                          PM                PM               
    Q    Q    E  E  Q       H        Q    Q       Q    Q    E  E  Q     
e|-----------------------|---------------------|-----------------------|
B|-----------------------|---------------------|-----------------------|
G|-----------------------|---------------------|-----------------------|
D|--L---------2--3--2----|--1-------------2----|--L---------2--3--2----|
A|--L---------2--3--2----|--1-------------2----|--L---------2--3--2----|
E|-------0---------------|-----------0---------|-------0---------------|

    E   E  E  E  E  E   E   E      E   E   E   E   E   Q    E                 
e|------------------7--12------|-------------------------------|-----|-------|
B|---------------8---------12--|-------------------------------|-----|-------|
G|------------9----------------|--12---------------------------|-----|-------|
D|---------9-------------------|------14-----------------------|-----|-------|
A|--7--10----------------------|----------14-------------------|-----|-------|
E|-----------------------------|--------------15--12--11-------|-----|-------|

                                            Q    H.            
e|-------|-------|-------|-------|-------|--------------------|
B|-------|-------|-------|-------|-------|-------0------------|
G|-------|-------|-------|-------|-------|--------------------|
D|-------|-------|-------|-------|-------|--------------------|
A|-------|-------|-------|-------|-------|--------------------|
E|-------|-------|-------|-------|-------|--------------------|

               PM PM PM PM PM              PM PM PM PM PM  
     Q    Q    E  S  S  E  E     Q    Q    E  S  S  E  E   
e|----------------------------|---------------------------|
B|----------------------------|---------------------------|
G|*---------------------------|---------------------------|
D|*--5----4-------------------|---------------------------|
A|----------------------------|--6----5-------------------|
E|-------------0--0--0--0--0--|------------0--0--0--0--0--|

              PM PM PM PM PM                                                  
    Q    Q    E  S  S  E  E     Q    Q    Q    Q     4x  Q    Q    Q    Q     
e|---------------------------|-----------------------|----------------------|
B|---------------------------|-----------------------|----------------------|
G|---------------------------|----------------------*|----------------------|
D|--5----4-------------------|-----------------4----*|-----------------4----|
A|---------------------------|--6----5----6----------|--6----5----6---------|
E|------------0--0--0--0--0--|-----------------------|----------------------|

                                         PM PM PM PM PM       
                                    Q    E  S  S  E  E  Q     
e|-------|-------|-------|-------|---------------------------|
B|-------|-------|-------|-------|---------------------------|
G|-------|-------|-------|-------|---------------------------|
D|-------|-------|-------|-------|---------------------------|
A|-------|-------|-------|-------|--4-------------------4----|
E|-------|-------|-------|-------|-------2--2--2--2--2-------|

         PM PM PM PM PM              PM PM PM PM PM         
    Q    E  S  S  E  E  Q       Q    E  S  S  E  E  E   E   
e|---------------------------|-----------------------------|
B|---------------------------|-----------------------------|
G|---------------------------|-----------------------------|
D|---------------------------|-----------------------------|
A|--5-------------------4----|--3-------------------4p--0--|
E|-------2--2--2--2--2-------|-------2--2--2--2--2---------|

    E   E  E   E  E   E  E   E                           
e|------------------------------|-----|-----|-----|-----|
B|------------------------------|-----|-----|-----|-----|
G|------------------------------|-----|-----|-----|-----|
D|------------------------------|-----|-----|-----|-----|
A|--5p--0--6p--0--5p--0--4p--0--|-----|-----|-----|-----|
E|------------------------------|-----|-----|-----|-----|

         PM PM PM PM PM              PM PM PM PM PM       
    Q    E  S  S  E  E  Q       Q    E  S  S  E  E  Q     
e|---------------------------|---------------------------|
B|---------------------------|---------------------------|
G|---------------------------|---------------------------|
D|---------------------------|---------------------------|
A|--3-------------------3----|--4-------------------3----|
E|-------1--1--1--1--1-------|-------1--1--1--1--1-------|

         PM PM PM PM PM                                        
    Q    E  S  S  E  E  E   E     E   E  E   E  E   E  E   E   
e|-----------------------------|------------------------------|
B|-----------------------------|------------------------------|
G|-----------------------------|------------------------------|
D|-----------------------------|------------------------------|
A|--2-------------------3p--0--|--4p--0--5p--0--4p--0--3p--0--|
E|-------1--1--1--1--1---------|------------------------------|

                    PM PM PM PM PM PM PM PM PM  
    Q.     E  E  E  E  S  S  E  S  S  S  S  E   
e|---------------------------------------------|
B|---------------------------------------------|
G|---------------------------------------------|
D|--6------6--5--3-----------------------------|
A|--6------6--5--3-----------------------------|
E|--4------4--3--1--0--0--0--0--0--0--0--0--0--|

                    PM PM PM PM PM PM PM PM PM  
    Q.     E  E  E  E  S  S  E  S  S  S  S  E   
e|---------------------------------------------|
B|---------------------------------------------|
G|---------------------------------------------|
D|--6------6--5--3-----------------------------|
A|--6------6--5--3-----------------------------|
E|--4------4--3--1--0--0--0--0--0--0--0--0--0--|

                    PM PM PM PM PM PM PM PM PM  
    Q.     E  E  E  E  S  S  E  S  S  S  S  E   
e|---------------------------------------------|
B|---------------------------------------------|
G|---------------------------------------------|
D|--6------6--5--3-----------------------------|
A|--6------6--5--3-----------------------------|
E|--4------4--3--1--0--0--0--0--0--0--0--0--0--|

    Q.     E  E  E  E.  E.  E.  E.   
e|----------------------------------|
B|----------------------------------|
G|----------------------------------|
D|--6------6--5--3--5---5---8---8---|
A|--6------6--5--3--3-------6-------|
E|--4------4--3--1------------------|

                    PM PM PM PM PM PM PM PM PM  
    Q.     E  E  E  E  S  S  E  S  S  S  S  E   
e|---------------------------------------------|
B|---------------------------------------------|
G|---------------------------------------------|
D|--6------6--5--3-----------------------------|
A|--6------6--5--3-----------------------------|
E|--4------4--3--1--0--0--0--0--0--0--0--0--0--|

                    PM PM PM PM PM PM PM PM PM  
    Q.     E  E  E  E  S  S  E  S  S  S  S  E   
e|---------------------------------------------|
B|---------------------------------------------|
G|---------------------------------------------|
D|--6------6--5--3-----------------------------|
A|--6------6--5--3-----------------------------|
E|--4------4--3--1--0--0--0--0--0--0--0--0--0--|

                    PM PM PM PM PM PM PM PM PM  
    Q.     E  E  E  E  S  S  E  S  S  S  S  E   
e|---------------------------------------------|
B|---------------------------------------------|
G|---------------------------------------------|
D|--6------6--5--3-----------------------------|
A|--6------6--5--3-----------------------------|
E|--4------4--3--1--0--0--0--0--0--0--0--0--0--|

                                                   PM PM PM PM PM  
    Q.     E  E  E  E.  E.  E.  E.      Q    Q    E  S  S  E  E   
e|----------------------------------|----------------------------|
B|----------------------------------|----------------------------|
G|----------------------------------|*---------------------------|
D|--6------6--5--3--5---5---8---8---|*--5----4-------------------|
A|--6------6--5--3--3-------6-------|----------------------------|
E|--4------4--3--1------------------|-------------0--0--0--0--0--|

              PM PM PM PM PM              PM PM PM PM PM  
    Q    Q    E  S  S  E  E     Q    Q    E  S  S  E  E   
e|---------------------------|---------------------------|
B|---------------------------|---------------------------|
G|---------------------------|---------------------------|
D|---------------------------|--5----4-------------------|
A|--6----5-------------------|---------------------------|
E|------------0--0--0--0--0--|------------0--0--0--0--0--|

    Q    Q    Q    Q  (4x)  Q    Q    Q    Q     
e|-----------------------|----------------------|
B|-----------------------|----------------------|
G|----------------------*|----------------------|
D|-----------------4----*|-----------------4----|
A|--6----5----6----------|--6----5----6---------|
E|-----------------------|----------------------|

                    PM PM PM PM PM PM PM PM PM  
    Q.     E  E  E  E  S  S  E  S  S  S  S  E   
e|---------------------------------------------|
B|---------------------------------------------|
G|---------------------------------------------|
D|--6------6--5--3-----------------------------|
A|--6------6--5--3-----------------------------|
E|--4------4--3--1--0--0--0--0--0--0--0--0--0--|

                    PM PM PM PM PM PM PM PM PM  
    Q.     E  E  E  E  S  S  E  S  S  S  S  E   
e|---------------------------------------------|
B|---------------------------------------------|
G|---------------------------------------------|
D|--6------6--5--3-----------------------------|
A|--6------6--5--3-----------------------------|
E|--4------4--3--1--0--0--0--0--0--0--0--0--0--|

                    PM PM PM PM PM PM PM PM PM                                    
    Q.     E  E  E  E  S  S  E  S  S  S  S  E     Q.     E  E  E  E  E            
e|---------------------------------------------|------------------------|-------|
B|---------------------------------------------|------------------------|-------|
G|---------------------------------------------|------------------------|-------|
D|--6------6--5--3-----------------------------|--6------6--5--3--2-----|-------|
A|--6------6--5--3-----------------------------|--6------6--5--3--2-----|-------|
E|--4------4--3--1--0--0--0--0--0--0--0--0--0--|--4------4--3--1--0-----|-------|



************************************

| PM  Palm mute
| *   Natural harmonic
| p   Pull-off
| h   Hammer-on

************************************
Suggest correction
Give kudos to tab author, rate the tab!
1 2 3 4 5
comments
print report bad tab
guest
You may want to rate the tab now too:
select rating
Wanna post a correction for this tab? Suggest correction