Oops, an error
Loading. Please wait.

Suspended Animation Tab

1,913 views 3 this week
no commentswrite comment
1 2 3 4 5
3 more votes to show rating
add to favorites
launch autoscroll
font size
0
reset
how to read this tab
guitar tuner
Autoscroll
slow
fast
+/-
esc
set tempo
stop
Help us to improve Ultimate-Guitar.com Take our survey!
×
Pestilence
"Suspended Animation"
from the great album "Consuming Impulse"
       Roadrunner 1989)

tabbed by 
Fasa (jesusanalpenetration@jumpy.it)



Notes :

pm : palm muting
h : hammer on
p : pull off
/ : slide up
\ : slide down 
Guitar tunning D

Seconda canzone che tiro giù da Consuming Impulse, 
e che canzone!! Suspended Animation è una testimonianza 
di puro Tecnical Death Metal quindi impartevela subito 
che è una figata!!! I riff sono corretti però come sempre
mancano gli assoli… comunque buon divertimento! 
Pestilence forever!!!

Musica : Patrick Mameli e Patrick Uterwijk                                      
Testo : Martin Van Drunen


Intro (solo una volta) :

Guitar 1 :

------------------------------------------------
------------------------------------------------
------------------------------------------------
-2------3----2----------------------------------
-2----- 3----2-------5/-5-5-5--5\-3----5-6-6----
-0--0--1--1--0---0---3/-4-4-4--3\-1----3-4-4----
   pm    pm     pm      
   


Guitar 2 :
----------------------------
----------------------------
----------------------------
-2-----3-----2--------------
-2-----3-----2--------------
-0--0--1--1--0--------------
  pm     pm            

Intro section 2 (ripetere 4 volte) :
 
Guitar 1 :
---------------------------------------------------
---------------------------------------------------
---------------------------------------------------
-2------3------2-------5/6-6-6----5\3---5--6-6-----
-2------3------2-----------------------------------
-0--0-- 1---1--0---0---3/4-4-4----3\1---3--4-4-----
     pm      pm     pm 

Guitar 2  :
------------------------------------------------------
------------------------------------------------------
----------------------10/11--11-11-10\8---10--11-11--
-2------3------2-------------------------------------
-2------3------2------10/11--11-11--10\8--10--11-11--
-0--0---1---1--0---0----------------------------------
  pm       pm     pm 

pausa…

Riff 1 (“Suffering from a disease…”) :
ripetere 4 volte
--------------------------------------------------
--------------------------------------------------
--------------------------------------------------
--------------------------------------------------
-7------3-8-7------3-8-7------3-8h7-----9----8----
---000--------000--------000---------00---00---00-
    pm        pm         pm          pm   pm  pm    

Ritornello (“Vainly you wait for a cure…”)  :
guitar 1 & 2                         
ripetere 4 volte
--------------------------------
--------------------------------
---------------------4----------
-2---3-----------5---4----9-----
-2---3---3-3-3---5---2----6-----
-0---1---1-1-1---3--------6-----
          pm 

Fill 1 :
Guitar 1 & 2  
(ripetere una sola volta)
---------------------------
---------------------------
---------------------------
---------------------------
-8------4-9-8-------4-8----
---000--------000----------
   pm        pm 

pausa di mezzo secondo

Ripetere Riff 1 
(lyrics : “After the anesthesia…”) 
per quattro volte 
Ripetere Intro section 2 
per quattro volte 


Fill 2 : 
Guitar 1 & 2 
(ripetere una sola volta)
--------------------
--------------------
--------------------
--------------------
--8-7--6-5--3--3----
--6-5--4-3--1--1----

pausa di mezzo secondo

Bridge (“The blood is no longer liquid…”) :

Guitar 1 & 2                                                               ripetere 3 volte :                                  
---------------------------------------
---------------------------------------
--------5---------5h6p5----------------
---------------------------------------
00000000-0000000-------00000000-0000---
pm        pm                pm                    

continuazione :
------------------------------------
------------------------------------
------------------------------------
2224444554444-----4h5p4----2--------
------------------------------------
-------------0000------000----------
             pm        pm 

               

Ripetere il bridge su un altro tempo. 
La Guitar 1 esegue il riff normalmente,
mentre la seconda chitarra esegue questo :

                                                                                ripetere 3 volte :

-------------------------------------------
-------------------------------------------
----------8-------------8h9p8--------------
-------------------------------------------
-------------------------------------------
0000000----00000000------------000000------
 pm            pm               pm

continuazione :

-----------------------------------
-----------------------------------
-5557777887777-----7h8p7----5------
-----------------------------------
-----------------------------------
-------------0000-------0000-------
             pm         pm    


Assoli (not tabbed)

Sotto l’assolo di Patrick M. :
ripetere 5 volte    
--------------------------------------
--------------------------------------
--------------------------------------
--------------------------------------
-2---2---2-------6/8---6/8---5/7------
-0-0-0-0-0-0---0-4/6-0-4/6-0-3/5-0----
  pm  pm  pm  pm    pm     pm   pm

prima che cominci l’assolo di Patrick U. : 
-------------------------------------
-------------------------------------
-------------------------------------
-------------------------------------
-2---2---2-------8-8-8-8-------------
-0-0-0-0-0-0--0--6-6-6-6-------------
  pm  pm  pm pm

Sotto l’assolo di Patick U. 
ripetere Riff 1 per 4 volte

Ripetere ritornello per 4 volte 

Ripetere Intro section 2 
per quattro volte (Guitar 1 & 2)

Alla quarta volta : 

Guitar 1 :
-----------------------------------------------
-----------------------------------------------
-----------------------------------------------
-2-----3-----2-----5/6-6-6---5/3--5--6-6----2--
-2-----3-----2------------------------------2--
-0--0--1--1--0--0--3/4-4-4---3/1--3--4-4----0--
    pm    pm   pm 

Guitar 2 :
---------------------------------------------------------
---------------------------------------------------------
--------------------10/11--11-11-10\8---10--11-----------
-2-----3-----2------------------------------------2------
-2-----3-----2------10/11-11-11---10\8--10--11----2------
-0--0--1--1--0--0---------------------------------0------
   pm    pm    pm  
                                                                                Fine!!

“Comprate Consuming Impulse! Questo è tutto…. LONG LIFE TO DEATH METAL!!”


                                 Fasa 85
                          JESUS ANAL PENETRATION
Suggest correction
Give kudos to tab author, rate the tab!
1 2 3 4 5
comments
print report bad tab
guest
You may want to rate the tab now too:
select rating
Wanna post a correction for this tab? Suggest correction