Oops, an error
Loading. Please wait.

Testimony tab

538 views 1 this week
1 commentread comment
1 2 3 4 5
2 more votes to show rating
add to favorites
×
Save as Personal and add changes to this tab that will be seen only by you. Learn more ›
×
You can save this tab as Personal to edit and correct it or add notes. All changes will be seen only by you. Learn more »
launch autoscroll
font size
0
reset
how to read this tab
guitar tuner
edit
Autoscroll
slow
fast
+/-
esc
set tempo
stop
Author
Difficulty
Riff 1 - 0:00 x5

|---------------------------------|---------------------------------|
|---------------------------------|---------------------------------|
|---------------------------------|---------------------------------|
|---------------------------------|---------------------------------|
|---------------------------------|---------------------------------|
|-0-0-0-0-3-3-3-3-2-2-2-2-5-5-5-5-|-3-3-3-3-5-5-5-5-2-2-2-2-5-5-3-3-|
  _______________________________   _______________________________


 Tremelo wank under riff 1 - 0:00 - 0:07
|---------------------------------|---------------------------------|
|---------------------------------|---------------------------------|
|-------_1_------------_1_--------|------_1_------------------------|
|-----/-----\--------/-----\------|----/-----\---------1/2----------|
|-<7>/-------\------/-------\-----|---/-------\------/-----\--------|
|-<7>---------\----/---------\----|--/---------\----/-------\__-----|


|---------------------------------|----------------2----------------|
|---------------------------------|--<3>\--------/------\-----------|
|-------_1_-----------------------|------\--/\--/--------\----------|
|-----/-----\------1/2------------|-------\/--\/----------\---------|
|-<7>/-------\---/-----\----------|---------------------------------|
|-<7>---------\-/-------\/\/\/\/--|---------------------------------|
                            ^
                           (^unintelligible)
 Riff 2 - 0:22 x4
|---------------------------------|---------------------------------|
|---------------------------------|---------------------------------|
|---------------------------------|---------------------------------|
|---------------------3-3---------|---------------------3-3---------|
|-5-5-5-5---------5-5-------------|-5-5-5-5---------5-5-------------|
|---------2-2-2-2---------2-2-2-2-|---------2-2-2-2---------2-2-2-2-|
  _______________________________   _______________________________


 0:34
|---------------------------------|---------------------------------|
|----------------------9----------|---------------------------------|
|------------10---11------11--10--|-8-------------------------------|
|----10--11-----------------------|----11--10--8--------------------|
|-8-------------------------------|----------------11---10---8---7--|
|---------------------------------|---------------------------------|
|
|---------------------------------|---------------------------------|
|---------------------------------|---------------------------------|
|---------------------------------|---------------------------------|
|---------------------------------|---------------------------------|
|---------------------------------|---------------------------------|
|-0-0-0-0-3-3-3-3-2-2-2-2-5-5-5-5-|-3-3-3-3-5-5-5-5-2-2-2-2-5-5-3-3-|
   _______________________________   _______________________________


|---------------------------------|---------------------------------|
|----------------------9----------|---------------------------------|
|------------10---11------11--10--|-8-------------------------------|
|----10--11-----------------------|----11--10--8---10\--------------|
|-8-------------------------------|-------------------\-------------|
|---------------------------------|---------------------------------|
|
|---------------------------------|---------------------------------|
|---------------------12----------|---------------------------------|
|------------13---14------14--13--|-11------------------------------|
|----13--14-----------------------|----14--13--11--13\--------------|
|-11------------------------------|-------------------\-------------|
|---------------------------------|---------------------------------|
|
|---------------------------------|---------------------------------|
|---------------------------------|---------------------------------|
|---------------------------------|---------------------------------|
|---------------------------------|---------------------------------|
|---------------------------------|---------------------------------|
|-0-0-0-0-3-3-3-3-2-2-2-2-5-5-5-5-|-3-3-3-3-5-5-5-5-2-2-2-2-5-5-3-3-|
  _______________________________   _______________________________


  Repeat riff 1 - 0:42 x5
  Repeat riff 2 - 0:56 x4


1:08
 Riff 3 x2                      Riff 4 x2
|---------------------|        |----------------------|
|---------------------|        |----------------------|
|---------------------|        |----------------------|
|---------------------|        |----------------------|
|-7---------7---------|        |-6---------6----------|
|----0-3-0-----0-3-0--|        |----0-3-0-----0-3-0---|
     _____     _____                _____     _____


 Repeat riff 3 x2
 Repeat riff 4 x2
 Repeat riff 3 x2
 Repeat riff 4 x2
 Repeat riff 3 x2
 Repeat riff 4 x2

 Repeat riff 1 - 1:36 x5
 Repeat riff 2 - 1:58 x4


 2:10
|---------------------------------|---------------------------------|
|---------------------------------|---------------------------------|
|---------------------------------|---------------------------------|
|---------------------------------|---------------------------------|
|-6\---/-\--/-(punch-tremelo-senselessly-)--------------------------|
|---\_/---\/----------------------|---------------------------------|
|
|---------------------------------|---------------------------------|
|---------------------------------|---------------------------------|
|---------------------------------|---------------------------------|
|---------------------4-4---------|---------------------4-4---------|
|-6-6-6-6---------6-6-------------|-6-6-6-6---------6-6-------------|
|---------3-3-3-3---------3-3-3-3-|---------3-3-3-3---------3-3-3-3-|
  _______________________________   _______________________________


|---------------------------------|---------------------------------|
|----1.5--------------------------|---------------------------------|
|-9/-----\------------------------|---------------------------------|
|---------\-----------------------|---------------------------------|
|----------\--(more-wobbling)-----|---------------------------------|
|---------------------------------|------------0\-(dive and wobble)-|
|
|---------------------------------|---------------------------------|
|---------------------------------|---------------------------------|
|---------------------------------|---------------------------------|
|---------------------4-4---------|---------------------4-4---------|
|-6-6-6-6---------6-6-------------|-6-6-6-6---------6-6-------------|
|---------3-3-3-3---------3-3-3-3-|---------3-3-3-3---------3-3-3-3-|
  _______________________________   _______________________________


|---------------------------------|---------------------------------|
|---------------------------------|---------------------------------|
|-----------------11\/\/\/\/------|-----------------12\/\/\/\/------|
|-13\/\/\/\/----------------------|-13\/\/\/\/----------------------|
|------^--------------^-----------|---------------------------------|
|---(half-step-dips-with-tremelo)-|---------------------------------|
|
|---------------------------------|---------------------------------|
|---------------------------------|---------------------------------|
|---------------------------------|---------------------------------|
|---------------------4-4---------|---------------------4-4---------|
|-6-6-6-6---------6-6-------------|-6-6-6-6---------6-6-------------|
|---------3-3-3-3---------3-3-3-3-|---------3-3-3-3---------3-3-3-3-|
  _______________________________   _______________________________


|---------------------------------|---------------------------------|
|---------------------------------|---------------------------------|
|---------------------------------|---------------------------------|
|-------------/10---12---10-------|-------------/9---10---9\--------|
|---------------------------------|-------------------------\-------|
|-0\-dive-------------------------|-0\-dive-------------------------|
|
|---------------------------------|---------------------------------|
|---------------------------------|---------------------------------|
|---------------------------------|---------------------------------|
|---------------------4-4---------|---------------------4-4---------|
|-6-6-6-6---------6-6-------------|-6-6-6-6---------6-6-------------|
|---------3-3-3-3---------3-3-3-3-|---------3-3-3-3---------3-3-3-3-|
  _______________________________   _______________________________


  Sweep 1 x4 - 2:22                    Sweep 2 x4 - 2:25
|-------------8h12p8--------|      |------------8h12p8--------|
|-----------10------10------|      |----------10------10------|
|----------9----------9-----|      |---------9----------9-----|
|--------10------------10---|      |-------10------------10---|
|------12----------------12-|      |-8-8-12----------------12-|
|-12-12---------------------|      |--------------------------|
|                                  |
|---------------------------|      |--------------------------|
|---------------------------|      |--------------------------|
|---------------------------|      |--------------------------|
|-2-------------------------|      |-3------------------------|
|-2-------------------------|      |-3------------------------|
|-0-------------------------|      |-1------------------------|

 Repeat sweep 1 x4
 Repeat sweep 2 x4

  Sweep 3 x4 - 2:33                      Sweep 4 x4 - 2:36
|--------------13h17p13---------|      |---------------13h17p13---------|
|------------15--------15-------|      |-------------15--------15-------|
|----------14------------14-----|      |-----------14------------14-----|
|--------15----------------15---|      |---------15----------------15---|
|------17--------------------18-|      |-13-13-17--------------------17-|
|-17-17-------------------------|      |--------------------------------|
|                                      |
|-------------------------------|      |--------------------------------|
|-------------------------------|      |--------------------------------|
|-------------------------------|      |--------------------------------|
|-7-----------------------------|      |-8------------------------------|
|-7-----------------------------|      |-8------------------------------|
|-5-----------------------------|      |-6------------------------------|


 Repeat sweep 3 x4
 Repeat sweep 4 x4


    __3__                __3__
   |     |              |     |
|-15h19p15----------14-14h17p14-------------|
|----------17----17-------------15----15-17-|
|-------------15-------------------14-------|
|-------------------------------------------|
|-------------------------------------------|
|-------------------------------------------|


 2:46 - solo
|-13~~~--13h14p13----13-14h16p14p13--|----------------------------------------|
|-----------------16-----------------|-16p14p13h14h16-14-13----------13-------|
|------------------------------------|----------------------15-13-11----15wb--|
|------------------------------------|----------------------------------------|
|------------------------------------|----------------------------------------|
|------------------------------------|----------------------------------------|
|
|------------------------------------|----------------------------------------|
|------------------------------------|----------------------------------------|
|------------------------------------|----------------------------------------|
|------------------------------------|----------------------------------------|
|------------------------------------|----------------------------------------|
|-0-0-0-0--3-3-3-3--2-2-2-2--5-5-5-5-|--3-3-3-3---5-5-5-5---2-2-2-2---5-5-3-3-|
  __________________________________    _____________________________________


|---------------------------------|---------------------------------|
|---------------------------------|---------------------------------|
|---------------1/2---------------|--/<3>--/\/\/\/\/bar-vibrato-----|
|--------------/---\--------------|-/--^----------------------------|
|-<12>\-------/-----\-------------|-pre-dive------------------------|
|------\_1.5_/-------\------------|----and-pick---------------------|
|
|---------------------------------|---------------------------------|
|---------------------------------|---------------------------------|
|---------------------------------|---------------------------------|
|---------------------------------|---------------------------------|
|---------------------------------|---------------------------------|
|-0-0-0-0-3-3-3-3-2-2-2-2-5-5-5-5-|-3-3-3-3-5-5-5-5-2-2-2-2-5-5-3-3-|
  _______________________________   _______________________________

 Repeat riff 1 x5 - 2:52
 Repeat riff 3 x4 - 3:08

 Repeat riff 3 x2 - 3:20
 Repeat riff 4 x2
 Repeat riff 3 x2
 Repeat riff 4 x2
 Repeat riff 3 x2
 Repeat riff 4 x2
 Repeat riff 3

  Riff 3 slightly different - 3:41
|---------------------|---------------------|
|---------------------|---------------------|
|---------------------|---------------------|
|---------------------|--------------6--5---|
|-7---------7---------|-7---------7---------|
|----0-3-0-----0-3-0--|----0-3-0------------|
     _____     _____       _____


 Repeat riff 4 x2


 Finish
|---------------------------------|---------------------------------|
|---------------------------------|---------------------------------|
|---------------------------------|--------------------------6------|
|---------------------3-3---------|---------------------3-3--6------|
|-5-5-5-5---------5-5-------------|-5-5-5-5---------5-5------5------|
|---------2-2-2-2---------2-2-2-2-|---------2-2-2-2-----------------|
  _______________________________   _______________________


            
            
Suggest correction
Creating personal tab
Creating personal tab
You can edit any tab online and save it as your Personal.

You can edit, replace or remove any tab part or add personal notes – all changes will be seen only by you.

Personal tabs can be accessed anytime from any device, even offline.
Learn more »
Give kudos to tab author, rate the tab!
1 2 3 4 5
comments
print report bad tab
1 comment total.
0 reply
NosferatuZodd09 1,248 Mar 26, 2017 08:25 PM

you should put it on guitar pro :P

guest
You may want to rate the tab now too:
select rating
Wanna post a correction for this tab? Suggest correction