Oops, an error
Loading. Please wait.

The Secrecies Of Horror Tab

version 1
version 1

Whole song

Interactive

873 views 1 this week
no commentswrite comment
1 2 3 4 5
please rate
add to favorites
launch autoscroll
font size
0
reset
how to read this tab
guitar tuner
Autoscroll
slow
fast
+/-
esc
set tempo
stop
Help us to improve Ultimate-Guitar.com Take our survey!
×
*******************************************************************************

PESTILENCE . The Secrecies Of Horror
>From Testimony Of The Ancient . Roadrunner 91
Transcribed  and Tabbed by Pierre "Boz" SARDA
November 97 . Version 1.0 .

Hi . Here is The 1st song of this Master piece that all Death Thrash fans
MUST have. I lack one riff (number 5), and the fast part in solo 1.
Solo 2 i can t ear anything, so i haven t tried it :).

Any help is welcome!!!!

Strange notations :
// : tremolo picking.
12b(14) : bend 12 till it sounds like 14.
14d(13) : depress with vibrato bar .



Riff 1 (fade in intro)

||----------2-1-|(keyboard notes)
||--------------|
||--------------| GUIT 1&2            Repeat 8 times 
||--------------|
||-5-44-4-------|
||-3-22-2-------|


Riff 2 (Main Riff)
||-----------------------------------------|
||-----------------------------------------|
||-----------------------------------------| GUIT 1
||--------3----------5--------3----------5-|
||---------543-------3---------543-------3-|
||-3-333-3----654-345--3-333-3----654-345--|
||
||-----------------------------------------|
||-----------------------------------------|
||-----------------------------------------| GUIT 2
||-------------------5-------------------5-|
||-------------------3-------------------3-|
||-----------------------------------------|

Then repeat 5 times Riff 2 with both guitars playing Guitar 1 part.

Riff 3

||---------------|
||---------------|
||---------------| Guit 1&2
||------4--3-----|
||------2--1--5--|
||-10---------3--|

repeat 4 times then play 

Riff 2 6 times
Riff 3 4 times
then

Riff 4 (with keyboard effects)

||-------------------------|
||-------------------------|
||-------------------------| GUIT 1&2
||------9-8~---------9-10~-|
||------7-6~---------7-8-~-|
||-0000---------0000-------|
   ....         ....

repeat Riff 4 6 times

Under solo 1
||---------|
||---------|
||---------| GUIT 2
||---------|
||-0-3-1-4-|
||---------|

repeat 8 times


Solo 1
||-----------------------------------------------------------------------|
||-----------------------------------------------------------------------|
||-------15-14----------------------------------12b(14)~-13b(15)-15b(17)~|
||-15-14-//-//-17-15-14--1514121415141214151412--------------------------|
||-//-//-------//-//-//--------------------------------------------------|
||-----------------------------------------------------------------------|



||---------------------------------------------------------|
||-----------------18-17-15----1517181715------------------|
||-14b(16)~----14-----------17------------17---------------|
||----------------------------------------------????????---|
||---------------------------------------------------------|
||---------------------------------------------------------|


||---------------------------------------------------------|
||----------------------------------------ah---------------|
||--12b(14)~-------------------------------6b(9)~~---------|
||------------14d(13)~~~~b(15)~~---------------------------|
||---------------------------------------------------------|
||--------------------------------0d(?)--------------------|



Riff 5  ?????
||---------------------------------------------------------|
||---------------------------------------------------------|
||---------------------------------------------------------| GUIT 1&2
||---------------------------------------------------------|
||---------------------------------------------------------|
||---------------------------------------------------------|


Repeat Riff 5 16 times

Then
Riff 2 6 times
Riff 3 4 times 
Riff 4 8 times

then

Riff 6
||--------------------|
||--------------------|
||--------------------| GUIT 1&2
||-------------11--10-|
||-11-10-9--8--9---8--|
||-9--8--7--6---------|
   .  .  .  .

Repeat 4 times 
Then 8 times under solo 2 (without Palm muting)

Last time play it in order to slide to Riff 4 :

||-----------------------|
||-----------------------|
||-----------------------| GUIT 1&2
||--------------9-8--...-|
||-11-10-9------7-6------|
||-9--8--7-0000----------|

                                               
Repeat Riff 4 8 times 

then

Riff 4'
||-------------------------------------------|
||-------------------------------------------|
||-------------------------------------------| GUIT 1&2      2 times
||------9-8~-------9-8~------9-8~------9-10~-|
||------7-6~-------7-6~------7-6~------7-8-~-|
||-0000-------0000------0000------0000-------|
   ....       ....      ....      ....
Suggest correction
What's this?
You can suggest a correction to this tab. Community and Mods will review your correction and vote to approve or reject it.
comments
We did not receive enough feedback on this tab! Please rate:
print report bad tab
1 2 3 4 5
guest
You may want to rate the tab now too:
select rating
Please do not post tabs as comments. Select "correction" instead!