Oops, an error
Loading. Please wait.

Jealousy Bass Tab

46 views 3 this week
no commentswrite comment
1 2 3 4 5
3 more votes to show rating
add to favorites
launch autoscroll
font size
0
reset
guitar tuner
Autoscroll
slow
fast
+/-
esc
set tempo
stop
Help us to improve Ultimate-Guitar.com Take our survey!
×
Author
Difficulty
novice
[Intro]

G|----------------|----------------|
D|----------------|----------------|
A|--------r-------|--------r-------|
E|----------------|----------------|


[Verse 1]

G|-------------------|-------------------|-------------------|-------------------|
D|-------------------|-------------------|-------------------|-------------------|
A|--3-3-3-3-3-3-3-3--|--3-3-3-3-3-3-3-3--|-------------------|-------------------|
E|-------------------|-------------------|--5-5-5-5-5-5-5-5--|--5-5-5-5-5-5-5-5--|


G|-------------------|-------------------|-------------------|-------------------|
D|-------------------|-------------------|-------------------|-------------------|
A|-------------------|--5-5-5-5-5-5-5-5--|-------------------|-------------------|
E|--1-1-1-1-1-1-1-1--|-------------------|--3-3-3-3-3-3-3-3--|--3-3-3-3-3-3-3-3--|


[Verse 2]

G|-------------------|-------------------|-------------------|-------------------|
D|-------------------|-------------------|-------------------|-------------------|
A|--3-3-3-3-3-3-3-3--|--3-3-3-3-3-3-3-3--|-------------------|-------------------|
E|-------------------|-------------------|--5-5-5-5-5-5-5-5--|--5-5-5-5-5-5-5-5--|


G|-------------------|-------------------|-------------------|-------------------|
D|-------------------|-------------------|-------------------|-------------------|
A|-------------------|--5-5-5-5-5-5-5-5--|-------------------|-------------------|
E|--1-1-1-1-1-1-1-1--|-------------------|--3-3-3-3-3-3-3-3--|--3-3-3-3-3-3-3-3--|


[Verse 3]

G|-------------------|-------------------|-------------------|-------------------|
D|-------------------|-------------------|-------------------|-------------------|
A|--3-3-3-3-3-3-3-3--|--3-3-3-3-3-3-3-3--|-------------------|-------------------|
E|-------------------|-------------------|--5-5-5-5-5-5-5-5--|--5-5-5-5-5-5-5-5--|


G|-------------------|-------------------|-------------------|-------------------|
D|-------------------|-------------------|-------------------|-------------------|
A|-------------------|--5-5-5-5-5-5-5-5--|-------------------|-------------------|
E|--1-1-1-1-1-1-1-1--|-------------------|--3-3-3-3-3-3-3-3--|--3-3-3-3-3-3-3-3--|


[Chorus]

G|-------------------|-------------------|-------------------|-------------------|
D|-------------------|-------------------|-------------------|-------------------|
A|--3-3-3-3-2-2-2-2--|--1-1-1-1-1-1-0-0--|--5-5-5-5-4-4-4-4--|--3-3-3-3-3-3-3-3--|
E|-------------------|-------------------|-------------------|-------------------|


G|-------------------|-------------------|
D|-------------------|-------------------|
A|-------------------|-------------------|
E|--1-1-1-1-1-1-1-1--|--3-3-3-3-3-3-3-3--|


[Verse 4]

G|-------------------|-------------------|-------------------|-------------------|
D|-------------------|-------------------|-------------------|-------------------|
A|--3-3-3-3-3-3-3-3--|--3-3-3-3-3-3-3-3--|-------------------|-------------------|
E|-------------------|-------------------|--5-5-5-5-5-5-5-5--|--5-5-5-5-5-5-5-5--|


G|-------------------|-------------------|-------------------|-------------------|
D|-------------------|-------------------|-------------------|-------------------|
A|-------------------|--5-5-5-5-5-5-5-5--|-------------------|-------------------|
E|--1-1-1-1-1-1-1-1--|-------------------|--3-3-3-3-3-3-3-3--|--3-3-3-3-3-3-3-3--|


[Verse 5]

G|-------------------|-------------------|-------------------|-------------------|
D|-------------------|-------------------|-------------------|-------------------|
A|--3-3-3-3-3-3-3-3--|--3-3-3-3-3-3-3-3--|-------------------|-------------------|
E|-------------------|-------------------|--5-5-5-5-5-5-5-5--|--5-5-5-5-5-5-5-5--|


G|-------------------|-------------------|-------------------|-------------------|
D|-------------------|-------------------|-------------------|-------------------|
A|-------------------|--5-5-5-5-5-5-5-5--|-------------------|-------------------|
E|--1-1-1-1-1-1-1-1--|-------------------|--3-3-3-3-3-3-3-3--|--3-3-3-3-3-3-3-3--|


[Chorus]

G|-------------------|-------------------|-------------------|-------------------|
D|-------------------|-------------------|-------------------|-------------------|
A|--3-3-3-3-2-2-2-2--|--1-1-1-1-1-1-0-0--|--5-5-5-5-4-4-4-4--|--3-3-3-3-3-3-3-3--|
E|-------------------|-------------------|-------------------|-------------------|


G|-------------------|-------------------|
D|-------------------|-------------------|
A|-------------------|-------------------|
E|--1-1-1-1-1-1-1-1--|--3-3-3-3-3-3-3-3--|


G|-------------------|-------------------|-------------------|-------------------|
D|-------------------|-------------------|-------------------|-------------------|
A|--3-3-3-3-2-2-2-2--|--1-1-1-1-1-1-0-0--|--5-5-5-5-4-4-4-4--|--3-3-3-3-3-3-3-3--|
E|-------------------|-------------------|-------------------|-------------------|


G|-------------------|-------------------|
D|-------------------|-------------------|
A|-------------------|-------------------|
E|--1-1-1-1-1-1-1-1--|--3-3-3-3-3-3-3-3--|


[Instrumental]

G|-------------------|-------------------|-------------------|-------------------| (x2)
D|-------------------|-------------------|-------------------|-------------------|
A|--3-3-3-3-3-3-3-3--|--3-3-3-3-3-3-3-3--|-------------------|-------------------|
E|-------------------|-------------------|--5-5-5-5-5-5-5-5--|--5-5-5-5-5-5-5-5--|


[Instrumental  End]

G|-------------------|-------------------|-------------------|-------------------|
D|-------------------|-------------------|-------------------|-------------------|
A|-------------------|-------------------|-------------------|-------------------|
E|--1-1-1-1-1-1-1-1--|--1-1-1-1-1-1-1-1--|--3-3-3-3-3-3-3-3--|--3-3-3-3-3-3-3-3--|


[Chorus]

G|-------------------|-------------------|-------------------|-------------------|
D|-------------------|-------------------|-------------------|-------------------|
A|--3-3-3-3-2-2-2-2--|--1-1-1-1-1-1-0-0--|--5-5-5-5-4-4-4-4--|--3-3-3-3-3-3-3-3--|
E|-------------------|-------------------|-------------------|-------------------|


G|-------------------|-------------------|
D|-------------------|-------------------|
A|-------------------|-------------------|
E|--1-1-1-1-1-1-1-1--|--3-3-3-3-3-3-3-3--|


G|-------------------|-------------------|-------------------|-------------------|
D|-------------------|-------------------|-------------------|-------------------|
A|--3-3-3-3-2-2-2-2--|--1-1-1-1-1-1-0-0--|--5-5-5-5-4-4-4-4--|--3-3-3-3-3-3-3-3--|
E|-------------------|-------------------|-------------------|-------------------|


G|-------------------|-------------------|-------------------|-------------|-----|-----|
D|-------------------|-------------------|-------------------|-------------|-----|-----|
A|-------------------|-------------------|--3-3-3-3-3-3-3-3--|--0-0-0-0----|-----|--3--|
E|--1-1-1-1-1-1-1-1--|--3-3-3-3-3-3-3-3--|-------------------|----------1--|--3--|-----|


[Outro] (repeat until the end)

G|-------------------|-------------------|-------------------|-------------------|
D|-------------------|-------------------|-------------------|-------------------|
A|--3-3-3-3-2-2-2-2--|--1-1-1-1-1-1-0-0--|--5-5-5-5-4-4-4-4--|--3-3-3-3-3-3-3-3--|
E|-------------------|-------------------|-------------------|-------------------|


G|-------------------|-------------------|
D|-------------------|-------------------|
A|-------------------|-------------------|
E|--1-1-1-1-1-1-1-1--|--3-3-3-3-3-3-3-3--|



******************

| r : rest

******************

in regular sequence!

Suggest correction
Give kudos to tab author, rate the tab!
1 2 3 4 5
comments
print report bad tab
guest
You may want to rate the tab now too:
select rating
Wanna post a correction for this tab? Suggest correction