Oops, an error
Loading. Please wait.

Kings Cross Bass Tab

28 views 1 this week
no commentswrite comment
1 2 3 4 5
3 more votes to show rating
add to favorites
launch autoscroll
font size
0
reset
guitar tuner
Autoscroll
slow
fast
+/-
esc
set tempo
stop
Help us to improve Ultimate-Guitar.com Take our survey!
×
Author
Difficulty
novice
Bass Start - 00:08


[Intro]

G|-----------------|-----------------|-----------------|-----------------| (x2)
D|-----------------|-----------------|-----------------|-3-3-3-3-1-1-1-1-|
A|-4-4-4-4-4-4-4-4-|-4-4-4-4-4-4-4-4-|-3-3-3-3-3-3-3-3-|-----------------|
E|-----------------|-----------------|-----------------|-----------------|


G|-----------------|-----------------|-----------------|-----------------| 
D|-----------------|-----------------|-----------------|-3-3-3-3-3-3-3-3-|
A|-4-4-4-4-4-4-4-4-|-4-4-4-4-4-4-4-4-|-3-3-3-3-3-3-3-3-|-----------------|
E|-----------------|-----------------|-----------------|-----------------|


[Verse 1]

G|-----------------|-----------------|-----------------|-----------------| 
D|-3-3-3-3-3-3-3-3-|-1-1-1-1-1-1-1-1-|-----------------|-------------1-1-|
A|-----------------|-----------------|-4-4-4-4-4-4-4-4-|-3-3-3-3-3-3-----|
E|-----------------|-----------------|-----------------|-----------------|


G|-----------------|-----------------|-----------------|-----------------| 
D|-3-3-3-3-3-3-3-3-|-1-1-1-1-1-1-1-1-|-----------------|---------------1-|
A|-----------------|-----------------|-4-4-4-4-4-4-4-4-|-3-3-3-3-3-3-3---|
E|-----------------|-----------------|-----------------|-----------------|


G|-----------------|-----------------|-----------------|-----------------| 
D|-3-3-3-3-3-3-3-3-|-1-1-1-1-1-1-1-1-|-----------------|-------------1-1-|
A|-----------------|-----------------|-4-4-4-4-4-4-4-4-|-4-4-4-4-4-4-----|
E|-----------------|-----------------|-----------------|-----------------|


G|-----------------|-----------------|-----------------|-----------------| 
D|-3-3-3-3-3-3-3-3-|-1-1-1-1-1-1-1-1-|-----------------|-----------------|
A|-----------------|-----------------|-4-4-4-4-4-4-4-4-|-4-4-4-4-4-4-4---|
E|-----------------|-----------------|-----------------|---------------4-|


[Chorus]

G|-----------------|-----------------|-----------------|-----------------| (x2)
D|-----------------|-----------------|-----------------|-3-3-3-3-1-1-1-1-|
A|-4-4-4-4-4-4-4-4-|-4-4-4-4-4-4-4-4-|-3-3-3-3-3-3-3-3-|-----------------|
E|-----------------|-----------------|-----------------|-----------------|


[Interlude]

G|-----------------|-----------------|-----------------|-----------------| (x2)
D|-----------------|-----------------|-----------------|-3-3-3-3-1-1-1-1-|
A|-4-4-4-4-4-4-4-4-|-4-4-4-4-4-4-4-4-|-3-3-3-3-3-3-3-3-|-----------------|
E|-----------------|-----------------|-----------------|-----------------|


[Verse 2]

G|-----------------|-----------------|-----------------|-----------------| 
D|-3-3-3-3-3-3-3-3-|-1-1-1-1-1-1-1-1-|-----------------|-------------1-1-|
A|-----------------|-----------------|-4-4-4-4-4-4-4-4-|-3-3-3-3-3-3-----|
E|-----------------|-----------------|-----------------|-----------------|


G|-----------------|-----------------|-----------------|-----------------| 
D|-3-3-3-3-3-3-3-3-|-1-1-1-1-1-1-1-1-|-----------------|---------------1-|
A|-----------------|-----------------|-4-4-4-4-4-4-4-4-|-3-3-3-3-3-3-3---|
E|-----------------|-----------------|-----------------|-----------------|


G|-----------------|-----------------|-----------------|-----------------| 
D|-3-3-3-3-3-3-3-3-|-1-1-1-1-1-1-1-1-|-----------------|-------------1-1-|
A|-----------------|-----------------|-4-4-4-4-4-4-4-4-|-4-4-4-4-4-4-----|
E|-----------------|-----------------|-----------------|-----------------|


G|-----------------|-----------------|-----------------|---------| 
D|-3-3-3-3-3-3-3-3-|-1-1-1-1-1-1-1-1-|-----------------|---------|
A|-----------------|-----------------|-4-4-4-4-4-4-4-4-|-4-4-4---|
E|-----------------|-----------------|-----------------|-------4-|


[Chorus]

G|-----------------|-----------------|-----------------|-----------------| (x2)
D|-----------------|-----------------|-----------------|-3-3-3-3-1-1-1-1-|
A|-4-4-4-4-4-4-4-4-|-4-4-4-4-4-4-4-4-|-3-3-3-3-3-3-3-3-|-----------------|
E|-----------------|-----------------|-----------------|-----------------|


[Instrumental]

G|-----------------|-----------------|-----------------|-----------------|
D|-3-3-3-3-3-3-3-3-|-3-3-3-3-3-3-3-3-|-----------------|-5-5-5-5-3-3-3-3-|
A|-----------------|-----------------|-5-5-5-5-5-5-5-5-|-----------------|
E|-----------------|-----------------|-----------------|-----------------|


G|-----------------|-----------------|-----------------|-----------------|
D|-----------------|-----------------|-----------------|-5-5-5-5-3-3-3-3-|
A|-6-6-6-6-6-6-6-6-|-6-6-6-6-6-6-6-6-|-5-5-5-5-5-5-5-5-|-----------------|
E|-----------------|-----------------|-----------------|-----------------|


G|-----------------|-----------------|-----------------|-----------------|
D|-----------------|-------------3-3-|-5-5-5-5-5-5-5-5-|-5-5-5-5-5-5-5-5-|
A|-6-6-6-6-6-6-6-6-|-6-6-6-6-6-6-----|-----------------|-----------------|
E|-----------------|-----------------|-----------------|-----------------|


[Verse 3]

G|-----------------|-----------------|-----------------|-----------------|
D|-5-5-5-5-5-5-5-5-|-3-3-3-3-3-3-3-3-|-----------------|-------------3-3-|
A|-----------------|-----------------|-6-6-6-6-6-6-6-6-|-5-5-5-5-5-5-----|
E|-----------------|-----------------|-----------------|-----------------|


G|-----------------|-----------------|-----------------|-----------------|
D|-5-5-5-5-5-5-5-5-|-3-3-3-3-3-3-3-3-|-----------------|---------------3-|
A|-----------------|-----------------|-6-6-6-6-6-6-6-6-|-5-5-5-5-5-5-5---|
E|-----------------|-----------------|-----------------|-----------------|


G|-----------------|-----------------|-----------------|-----------------|
D|-5-5-5-5-5-5-5-5-|-3-3-3-3-3-3-3-3-|-----------------|---------------3-|
A|-----------------|-----------------|-6-6-6-6-6-6-6-6-|-6-6-6-6-6-6-6---|
E|-----------------|-----------------|-----------------|-----------------|


G|-----------------|-----------------|-----------------|---------|
D|-5-5-5-5-5-5-5-5-|-3-3-3-3-3-3-3-3-|-----------------|---------|
A|-----------------|-----------------|-6-6-6-6-6-6-6-6-|-6-6-6-6-|
E|-----------------|-----------------|-----------------|---------|


[Chorus]

G|-----------------|-----------------|-----------------|-----------------| (x2)
D|-----------------|-----------------|-----------------|-5-5-5-5-3-3-3-3-|
A|-6-6-6-6-6-6-6-6-|-6-6-6-6-6-6-6-6-|-5-5-5-5-5-5-5-5-|-----------------|
E|-----------------|-----------------|-----------------|-----------------|


[Interlude]

G|-----------------|-----------------|-----------------|-----------------| 
D|-----------------|-----------------|-----------------|-----------------|
A|-6-6-6-6-6-6-6-6-|-6-6-6-6-6-6-6-6-|-6-6-6-6-6-6-6-6-|-6-6-6-6-6-6-6-6-|
E|-----------------|-----------------|-----------------|-----------------|


G|-----------------|-----------------|-----------------|-----------------| 
D|-----------------|-----------------|-----------------|-----------------|
A|-6-6-6-6-6-6-6-6-|-6-6-6-6-6-6-6-6-|-6-6-6-6-6-6-6-6-|-6-6-6-6-6-6-6---|
E|-----------------|-----------------|-----------------|---------------6-|


[Chorus]

G|-----------------|-----------------|-----------------|-----------------| (x4)
D|-----------------|-----------------|-----------------|-5-5-5-5-3-3-3-3-|
A|-6-6-6-6-6-6-6-6-|-6-6-6-6-6-6-6-6-|-5-5-5-5-5-5-5-5-|-----------------|
E|-----------------|-----------------|-----------------|-----------------|


G|----------------|
D|----------------|
A|-6-6-6-6-6-5-5--|
E|----------------|


[Outro] (repeat until the end)

G|-----------------|-----------------|-----------------|-----------------|
D|-5-5-5-5-5-5-5-5-|-5-5-5-5-5-5-5-5-|-5-5-5-5-5-5-5-5-|-5-5-5-5-5-5-5-5-|
A|-----------------|-----------------|-----------------|-----------------|
E|-----------------|-----------------|-----------------|-----------------|



*************************

in regular sequence!

*************************
Suggest correction
Give kudos to tab author, rate the tab!
1 2 3 4 5
comments
print report bad tab
guest
You may want to rate the tab now too:
select rating
Wanna post a correction for this tab? Suggest correction