Oops, an error
Loading. Please wait.

Photobooth Chords

34 views 3 this week
no commentswrite comment
1 2 3 4 5
3 more votes to show rating
add to favorites
launch autoscroll
font size
0
reset
transpose
0
reset
simplify chords
display chords
guitar tuner
Autoscroll
slow
fast
+/-
esc
set tempo
stop
Help us to improve Ultimate-Guitar.com Take our survey!
×
Author
Difficulty
The chord voicings used in this song are as follows:

   A6add9  Asus2  Dmaj9  A    E/G#   D5   A/C#
e|--0------0------0---------------------------------|
B|--0------0------2---------------------------------|
G|--2------2------2------6-----------7-----6--------|
D|--4------2------0------7-----6-----7-----7--------|
A|--0------0-------------7-----7-----5-----4--------|
E|-----------------------5-----4--------------------|

The plucked pattern that plays over the intro and verses goes like this (the corresponding
chord changes are given above each bar):

   A6add9                       Asus2 
E|--------0-------------------|--------0-------------------|
B|-----------0----------------|-----------0----------------|
G|-----2----------------------|-----2----------------------|
D|--4-------------------------|--2-------------------------|
A|----------------------------|----------------------------|
E|----------------------------|----------------------------|

   Dmaj9
E|----------------------------|----------------------------|
B|--------2--2br------2-------|--------2--2br------2-------|
G|-----2-----------2-----2----|-----2-----------2-----2----|
D|--0-------------------------|--0-------------------------|
A|----------------------------|----------------------------|
E|----------------------------|----------------------------|

For the bends, bend up a semitone from C# to D and release back to C#.

[Intro]
A6add9 Asus2 Dmaj9 [x4]

[Verse 1]
A6add9            Asus2    Dmaj9
       Photobooth pictures split us into two and two
A6add9           Asus2         Dmaj9      
       I'm sorry but sometimes then and now I look at you
A6add9       Asus2                     Dmaj9
       And I mean this in the best way
A6add9              Asus2      Dmaj9
       I don't know how I know you

[Chorus]
A   E/G#                         
    Kissed under the street light 
A   E/G#    
    By your friend's house
A   E/G#                         
    Kissed under the street light 
A   E/G#   
    By your friend's house

[Verse 2]
A6add9 Asus2 Dmaj9 [x2]

A6add9         Asus2       Dmaj9
    Don't know how I ended up with you
A6add9     Asus2    Dmaj9
    In the luckiest way

[Chorus]
D5  A/C#
    Kissed under the street light 
D5  A/C#
    By your friend's house
D5  A/C#
    Kissed under the street light 
D5  A/C#
    By your friend's house

[Chorus]
D5  A/C#
    Kissed under the street light 
D5  A/C#
    By your friend's house
D5  A/C#
    Kissed under the street light 
D5  A/C#
    By your friend's house

[Outro]
A              E/G#
I guess what I mean is that if could
A                E/G#
Pick out all the parts of my brain I would leave
A             E/G#                A       E/G#
    The place where you made your hooooooome

A              E/G#
I guess what I mean is that if could
A                E/G#
Pick out all the parts of my brain I would leave
A             E/G#                A       E/G#
    The place where you made your hooooooome

D5             A/C#
I guess what I mean is that if could
D5               A/C#
Pick out all the parts of my brain I would leave
D5            A/C#                D5
    The place where you made your home
Suggest correction
Give kudos to tab author, rate the tab!
1 2 3 4 5
comments
print report bad tab
guest
You may want to rate the tab now too:
select rating
Wanna post a correction for this tab? Suggest correction