Oops, an error
Loading. Please wait.

Shame Chords

61 views 12 this week
no commentswrite comment
1 2 3 4 5
3 more votes to show rating
add to favorites
launch autoscroll
font size
0
reset
transpose
0
reset
simplify chords
display chords
guitar tuner
Autoscroll
slow
fast
+/-
esc
set tempo
stop
Help us to improve Ultimate-Guitar.com Take our survey!
×
Author
Difficulty
The non-standard chord-voicings used in the song are given below. The other
chords used in the song (G, A, Bb) are played as barre chords, except for G5
which is played as a standard power chord.

     D6add9   Bm11   D6add9/C#  A9sus4  A9
e|---0--------0------0----------0-------0-------|
B|---0--------0------0----------0-------0-------|
G|---7--------7------7----------7-------6-------|
D|---7--------7------7----------7-------7-------|
A|---5--------x------4----------0-------7-------|
E|------------7-----------------5-------5-------|

I've tabbed out the picking pattern that plays during the first verse below.
In the recording, there is no strumming during this section of the song, but
I've marked out how the plucked chord changes correspond with the lyrics.

   D6add9                                        Bm11
E|----------------------|----------------------|----------------------|
B|-----------3----------|-----------3----------|-----------3----------|
G|-----2--------2-------|-----2--------2-------|-----2--------2-------|
D|--0-----0--------0----|--0-----0--------0----|--------0--------0----|
A|----------------------|----------------------|--2-------------------|
E|----------------------|----------------------|----------------------|

                          Gsus2
E|----------------------|----------------------|----------------------|
B|-----------3----------|-----------3----------|-----------3----------|
G|-----2--------2-------|-----2--------2-------|-----2--------2-------|
D|--------0--------0----|--------0--------0----|--------0--------0----|
A|--2-------------------|----------------------|----------------------|
E|----------------------|--3-------------------|--3-------------------|

   D6add9                                       Gsus2
E|----------------------|----------------------|----------------------|
B|-----------3----------|-----------3----------|-----------3----------|
G|-----2--------2-------|-----2--------2-------|-----2--------2-------|
D|--0-----0--------0----|--0-----0--------0----|--------0--------0----|
A|----------------------|----------------------|----------------------|
E|----------------------|----------------------|--3-------------------|

                          D6add9                D6add9/C#
E|----------------------|----------------------|----------------------|
B|-----------3----------|-----------3----------|-----------3----------|
G|-----2--------2-------|-----2--------2-------|-----2--------2-------|
D|--------0--------0----|--0-----0--------0----|--------0--------0----|
A|----------------------|----------------------|--4-------------------|
E|--3-------------------|----------------------|----------------------|

   Bm11
E|----------------------|----------------------|----------------------|
B|-----------3----------|-----------3----------|-----------3----------|
G|-----2--------2-------|-----2--------2-------|-----2--------2-------|
D|--------0--------0----|--------0--------0----|--------0--------0----|
A|--2-------------------|--2-------------------|--2-------------------|
E|----------------------|----------------------|----------------------|

                          G
E|----------------------|-------||
B|-----------3----------|-------||
G|-----2--------2-------|-------||
D|--------0--------0----|-------||
A|--2-------------------|-------||
E|----------------------|--3----||


[Verse 1]
D6add9                       Bm11
You've seen the spots on her back
Gsus2                    D6add9
You know the salt of her tears
Gsus2                 D6add9    D6add9/C#   Bm11                                           
The dull glow in your pocket is only ever a fear
G
That maybe sometimes it all does go wrong

D6add9 Bm11 
D6add9 Bm11


[Pre-Chorus]
G5                   D6add9
But she's so goddamn loyal
D6add9/C#
And you've heard some sounds
G5      D6add9   D6add9/C#
Unhuman come out of her mouth
G5             D6add9     D6add9/C#
The vault door opened and shut
              Bm11
And you can't get out
              A9sus4   A9
Did you wanna geeeeeet out?


[Chorus]
G
Maybe like a piece of sea-glass
A
She'll smooth out all of her edges
D6add9                Bm11
And become gracefully transparent
G
Taken from the world
A 
Given to the sea
D6add9        Bm11
Returned with life and history
G                    A
There's not many who would stay

So you will

D6add9 Bm11
D6add9 Bm11


[Pre-Chorus]
G5                   D6add9
But she's so goddamn loyal
D6add9/C#
And you've heard some sounds
G5      D6add9   D6add9/C#
Unhuman come out of her mouth
G5             D6add9     D6add9/C#
The vault door opened and shut
              Bm11
And you can't get out
              A9sus4   A9
Did you wanna geeeeeet out?


[Chorus]
G
Maybe like a piece of sea-glass
A
She'll smooth out all of her edges
D6add9                Bm11
And become gracefully transparent
G
Taken from the world
A 
Given to the sea
D6add9        Bm11
Returned with life and history


[Outro]
Bb                   A
There's not many who would stay
Bb                   A
There's not many who would stay
Bb                   A
There's not many who would stay
            D6add9
So you will
Suggest correction
Give kudos to tab author, rate the tab!
1 2 3 4 5
comments
print report bad tab
guest
You may want to rate the tab now too:
select rating
Wanna post a correction for this tab? Suggest correction