Oops, an error
Loading. Please wait.

Blood Gets Thin Tab

8,671 views 18 this week
2 commentsread comments
1 2 3 4 5
x 13
add to favorites
launch autoscroll
font size
0
reset
how to read this tab
guitar tuner
×
Best way to learn
"Blood Gets Thin"
Autoscroll
slow
fast
+/-
esc
set tempo
stop
Great song by a great band. There are no other tabs for this song and this is my first 
Hope it's ok!


E----------------------|
B----------------------|
G----------------------|
D----------------------|
A---------33332222-----|    x4
E-00000000-------------|

E---------------------------------|
B---------------------------------|
G---------------------------------|
D---------------------------------|
A------3-32--67------3-332--------|
E-0-023----------0-23----32-0-----|   x2

thank you,danlap
Suggest correction
comments
print report bad tab
2 comments total.
0 reply
c0rn1x 42 Apr 30, 2011 03:13 AM

good tab :)

+4 reply
Tweexx 21 Jul 04, 2011 08:27 AM

Thanks! Small suggestion to the end of the second part:

E---------------------------------|
B---------------------------------|
G---------------------------------|
D---------------------------------|
A------3-32--67------3-320--------|
E-0-023----------0-23------32-0---| x2

guest
You may want to rate the tab now too:
select rating
Wanna post a correction for this tab? Suggest correction