Oops, an error
Loading. Please wait.

Cant Fish Bass Tab

252 views 3 this week
no commentswrite comment
1 2 3 4 5
3 more votes to show rating
add to favorites
launch autoscroll
font size
0
reset
guitar tuner
Autoscroll
slow
fast
+/-
esc
set tempo
stop
Help us to improve Ultimate-Guitar.com Take our survey!
×
Author
Difficulty
novice
-------------------------------------------------------------------------------
			     CANT FISH - Pete and the Pirates
-------------------------------------------------------------------------------

Tabbed By : Dan Hardy
e-mail: dhardy50@hotmail.co.uk

Tuning: Standard


G|----------------------------------------------------------------------------------|
D|----------------------------------------------------------------------------------|
A|----------------------------------------------------------------------------------|
E|-1-1-1-1-1-1-1-1-1-8-8-8-8-8-8-8-8-8-1-1-1-1-1-1-1-1-1-10-10-10-10-10-10-10-10-10-|
x2

G|----------------------------------------------------------------------------------|
D|----------------------------------------------------------------------------------|
A|----------------------------------------------------------------------------------|
E|-1-1-1-1-1-1-1-1-1-8-8-8-5-5-5-5-5-5-5-5-5-8-8-8----------------------------------|
x2

G|------------------------------------------------------------------------------------|
D|------------------------------------------------------------------------------------|
A|------------------------------------------------------------------------------------|
E|-1-1-1-1-1-1-1-1-1-8-8-8-8-8-8-8-8-8-1-1-1-1-1-1-1-1-1-10-10-10-10-10-10-10-10-10---|
x2

G|----------------------------------------------------------------------------------|
D|----------------------------------------------------------------------------------|
A|----------------------------------------------------------------------------------|
E|-1-1-1-1-1-1-1-1-1-8-8-8-5-5-5-5-5-5-5-5-5-8-8-8----------------------------------|
x2

G|----------------------------------------------------------------------------------|
D|----------------------------------------------------------------------------------|
A|----------------------------------------------------------------------------------|
E|-1-1-1-1-1-1-1-1-1-8-8-8-8-8-8-8-8-8-1-1-1-1-1-1-1-1-1-10-10-10-10-10-10-10-10-10-|

G|----------------------------------------------------------------------------------|
D|----------------------------------------------------------------------------------|
A|----------------------------------------------------------------------------------|
E|-1------8--5--3--1--0--0--1--1-1-1-1--1-8-8--5--5-5-5-5--5-8----------------------|

G|----------------------------------------------------------------------------------|
D|----------------------------------------------------------------------------------|
A|----------------------------------------------------------------------------------|
E|-1-1-1-1-1-1-1-1-1-8-8-8-8-8-8-8-8-8-1-1-1-1-1-1-1-1-1-10-10-10-10-10-10-10-10-10-|
x2

G|----------------------------------------------------------------------------------|
D|----------------------------------------------------------------------------------|
A|----------------------------------------------------------------------------------|
E|-1-1-1-1-1-1-1-1-1-8-8-8-5-5-5-5-5-5-5-5-5-8-8-8----------------------------------|

G|----------------------------------------------------------------------------------|
D|----------------------------------------------------------------------------------|
A|----------------------------------------------------------------------------------|
E|-1-1-1-1-1-1-1-1-1-8-8-8-5-5-5-7-7-7-8-8-8-3-3-3----------------------------------|

G|----------------------------------------------------------------------------------|
D|----------------------------------------------------------------------------------|
A|----------------------------------------------------------------------------------|
E|-1-1-1-1-1-1-1-1-3h1-8-8-8-5-5-5-7-7-7-8-8-8-3-3-3-1~-----------------------------|

| /  slide up
| \  slide down
| h  hammer-on
| p  pull-off
| ~  vibrato
| +  harmonic
| x  Mute note
===============================================================================
Suggest correction
Give kudos to tab author, rate the tab!
1 2 3 4 5
comments
print report bad tab
guest
You may want to rate the tab now too:
select rating
Wanna post a correction for this tab? Suggest correction