Oops, an error
Loading. Please wait.

Knots Bass Tab

version 2
version 2

Whole song

Interactive

261 views 1 this week
no commentswrite comment
1 2 3 4 5
please rate
add to favorites
launch autoscroll
font size
0
reset
guitar tuner
Tab Pro tools
  • play this tab
  • loop segment
  • change instrument
  • show fretboard
  • metronome
Autoscroll
slow
fast
+/-
esc
set tempo
stop
Difficulty
novice
Pete and the Pirates - Knots
Bass-Tab by d0m

Basically, there are two Riffs in this Song; Intro/Verse and Refrain:


Intro/Verse A:

G|-------------------------------------------------------------------|
D|-------------------------------------------------------------------|
A|--------------------------------------------------8-8-8-8-8-8-8-8--|
E|--8-8-8-8-8-8-8-8-0-0-0-0-0-0-0-0-5-5-5-5-5-5-5-5------------------|


Intro/Verse B:

G|-------------------------------------------------------------------|
D|-------------------------------------------------------------------|
A|--------------------------------------------------8-8-8-8-8-8-8-8--|
E|--8-8-8-8-8-8-8-8-7-7-7-7-7-7-7-7-5-5-5-5-5-5-5-5------------------| 



Refrain A:

G|-----------------------------------------------------|
D|-----------------------------------------------------|
A|-----------------------------------------8--8--8--8--|
E|--8--8--8--8--7--7-3--0--0--5--5--5--5---------------|


Refrain B (just one note added at the end):

G|-------------------------------------------------------|
D|-------------------------------------------------------|
A|-----------------------------------------8--8--8--8----|
E|--8--8--8--8--7--7-3--0--0--5--5--5--5---------------5-|



Buildup:

(Guitar Intro)
Intro/Verse A  X 4
Intro/Verse B  X 2
Refrain B  X 1
Refrain A  X 1
(small Guitar interlude)

Intro/Verse A  X 2
Intro/Verse B  X 2
Refrain A  X 2
(again small Guitar interlude)

Intro/Verse B  X 2
Intro/Verse A  X 2

Song ends with  E|--8-



Have Fun! ;)
comments
We did not receive enough feedback on this tab! Please rate:
print report bad tab
1 2 3 4 5
I want to post or [tab]
guest
You may want to rate the tab now too:
select rating
Please do not post tabs as comments. Select "correction" instead!