Oops, an error
Loading. Please wait.

I Dont Love Anyone But Youre Not Just Anyone Tab

235 views 84 this week
no commentswrite comment
1 2 3 4 5
x 3
add to favorites
launch autoscroll
font size
0
reset
how to read this tab
guitar tuner
Autoscroll
slow
fast
+/-
esc
set tempo
stop
Help us to improve Ultimate-Guitar.com Take our survey!
×
Author
Difficulty
intermediate
Pete Doherty - I Don't Love Anyone (But You're Not Just Anyone)
Hamburg Demonstrations 2016
Lesson Video: https://www.youtube.com/watch?v=UNKGID3j8J8

Intro:

e|-6---------6-----|-6---------6-(LetRing)-----------------------------------|
b|-7-6---7-6-7-6---|-7-6---7-6-7-(LetRing)-----------------------------------|
g|-8---8-----8---8-|-8---8-----8-(LetRing)-----------------------------------|
d|-8---------8-----|-8---------8-(LetRing)-----------------------------------|
a|-6---------6-----|-6---------6-(LetRing)-----------------------------------|
e|-6---------6-----|-6---------6-(LetRing)-----------------------------------|

Verse:

e|-6--6--6-6--4-2--2--2-2--2-4-----------------------------------------------|
b|-7--7--7-7--4-2--2--2-2--2-4-----------------------------------------------|
g|-8--8--8-8--6-3--3--3-3--3-6-----------------------------------------------|
d|-8--8--8-8--6-4--4--4-4--4-6---(X4)----------------------------------------|
a|-6--6--6-6--4-4--4--4-4--4-4-----------------------------------------------|
e|-6--6--6-6--4-2--2--2-2--2-4-----------------------------------------------|
  
Chorus:

e|-2-2-2-2-2-2-2-2-2-|-6-6-6-6-6-6-6-6-|-2-2-2-|-2-2-2-|-4-4-4-|-2-2-2-|-2-2-2-|-2-2-2-|-4-(LetRing)-|
b|-2-2-2-2-2-2-2-2-2-|-6-6-6-6-6-6-6-6-|-2-2-2-|-2-2-2-|-4-4-4-|-2-2-2-|-2-2-2-|-2-2-2-|-5-(LetRing)-|
g|-3-3-3-3-3-3-3-3-3-|-7-7-7-7-7-7-7-7-|-4-4-4-|-3-3-3-|-6-6-6-|-3-3-3-|-4-4-4-|-3-3-3-|-6-(LetRing)-|
d|-4-4-4-4-4-4-4-4-4-|-8-8-8-8-8-8-8-8-|-4-4-4-|-4-4-4-|-6-6-6-|-4-4-4-|-4-4-4-|-4-4-4-|-6-(LetRing)-|
a|-4-4-4-4-4-4-4-4-4-|-8-8-8-8-8-8-8-8-|-2-2-2-|-4-4-4-|-4-4-4-|-4-4-4-|-2-2-2-|-4-4-4-|-4-(LetRing)-|
e|-2-2-2-2-2-2-2-2-2-|-6-6-6-6-6-6-6-6-|-2-2-2-|-2-2-2-|-4-4-4-|-2-2-2-|-2-2-2-|-2-2-2-|-4-(LetRing)-|

Bridge:

e|-6--6-6--6-6--6-|-4--4-4--4-4--4-------------------------------------------|
b|-7--7-7--7-7--7-|-4--4-4--4-4--4-------------------------------------------|
g|-8--8-8--8-8--8-|-6--6-6--6-6--6-------------------------------------------|
d|-8--8-8--8-8--8-|-6--6-6--6-6--6---(X4)------------------------------------|
a|-6--6-6--6-6--6-|-4--4-4--4-4--4-------------------------------------------|
e|-6--6-6--6-6--6-|-4--4-4--4-4--4-------------------------------------------|

e|-6-6-|-4-4-|-2-2-|-1-1-----------------------------------------------------|
b|-7-7-|-4-4-|-2-2-|-1-1-----------------------------------------------------|
g|-8-8-|-6-6-|-4-4-|-3-3-----------------------------------------------------|
d|-8-8-|-6-6-|-4-4-|-3-3---(X2)----------------------------------------------|
a|-6-6-|-4-4-|-2-2-|-1-1-----------------------------------------------------|
e|-6-6-|-4-4-|-2-2-|-1-1-----------------------------------------------------|

e|-6--6-6-6--4--6------------------------------------------------------------|
b|-7--7-7-7--4--7------------------------------------------------------------|
g|-8--8-8-8--6--8------------------------------------------------------------|
d|-8--8-8-8--6--8---(X2)-----------------------------------------------------|
a|-6--6-6-6--4--6------------------------------------------------------------|
e|-6--6-6-6--4--6------------------------------------------------------------|

[Outro]

e|-6--6--6-6--4-2--2--2-2--2-4--|-6--6--6-6--4-4----------------------------||
b|-7--7--7-7--4-2--2--2-2--2-4--|-7--7--7-7--4-4----------------------------||
g|-8--8--8-8--6-3--3--3-3--3-6--|-8--8--8-8--6-5----------------------------||
d|-8--8--8-8--6-4--4--4-4--4-6--|-8--8--8-8--6-6----------------------------||
a|-6--6--6-6--4-4--4--4-4--4-4--|-6--6--6-6--4-6----------------------------||
e|-6--6--6-6--4-2--2--2-2--2-4--|-6--6--6-6--4-4----------------------------||

************************************

PlayLikeRockStar
YouTube: https://www.youtube.com/user/PlayLikeRockStar

************************************
Suggest correction
Give kudos to tab author, rate the tab!
1 2 3 4 5
comments
print report bad tab
guest
You may want to rate the tab now too:
select rating
Wanna post a correction for this tab? Suggest correction