Oops, an error
Loading. Please wait.

Kolly Kibber chords

2,608 views 24 this week
no commentswrite comment
1 2 3 4 5
x 8
add to favorites
×
Save as Personal and add changes to this tab that will be seen only by you. Learn more ›
×
You can save this tab as Personal to edit and correct it or add notes. All changes will be seen only by you. Learn more »
launch autoscroll
font size
0
reset
transpose
0
reset
display chords
guitar tuner
edit
Autoscroll
slow
fast
+/-
esc
set tempo
stop
Author
Difficulty
Strumming
There is no strumming pattern for this song yet. and get +5 IQ
[Intro riff]
e|-----------------------------------------------|
b|5s12-12-12-10-8-7-8-7-5--3s10-10-10-8-6-5-6-5-3|
g|-----------------------------------------------|
D|-----------------------------------------------|
A|-----------------------------------------------|
E|-----------------------------------------------|

e|-----------------------------------------------|
b|-----------------------------------------------|
g|-5s4s5-6-10-9-----9---9---8s9--7s8--9----------|
D|--------------10--10--10--8s9--7s8--9----------|
A|-----------------------------------------------|
E|-----------------------------------------------|

(2x)
e|10-10-10-10-12-10------------------------------|
b|12-12---------------------8--8--8--8--8--8-----|
g|--------------------------9--9--9--9--9--9-----|
D|-------------------------10-10-10-10-10-10-----|
A|-----------------------------------------------|
E|-----------------------------------------------|                
  
[Verse 1]
G                  Em
Baby, oh baby I am told
               Am
They broke the mould
               D
When they made you
Am                           D
Probably the wisest thing to do

[Pre-chorus 1]
D#
Cause heavenly moulds lead to heavenly forms
                           G
And heavenly forms lead to devilish woes
D#
And this is hell nor we are out it
          D
Oh, those devilish woes

[Chorus 1]
Em                                Am
I don't want to end up like Kolly Kibber
D                  G
From a ghost train into the
          C
Beautiful briny
F               D
Beautiful briny sea

[Instrumental]
G   C   D    G   C  D
One way, the only way

[Verse 2]
G     Em
Oh liebling
G                    Em
Liebling die Form zerbrach
                   Am
Noch in der ersten Nacht
D
Die nacht des ersten Lichts
  Am         D
Danach kommt nichts, oder?

[Pre-chorus 2]
D#
Heavenly moulds to the heavenly forms
                           G
And heavenly forms lead to devilish woes
D# 
Outward shows be least themselves
          D
Oh, those devilish woes

[Chorus 2]
Em                            Am
I don't want to go like Kolly Kibber
D                         G
Thrown from a ghost train into the
          C
Beautiful briny
F               D
Beautiful briny sea

[Interlude]
D     G
Kolly Kibber (4x)
            C
There's one way, one way to settle this

The fairest way, fairest way that exists
       Em                               Bm
Have a skinful and sing knees up Mother Brody
Cm
Sing knees up Mother

[Chorus 3]
Em                            Am
I don't want to go like Kolly Kibber
D                     G
Launched from a ghost train to the
          C
Beautiful briny
F               D
Beautiful briny sea

[Chorus 4]
Em                                   Am
Oh me, I don't want to go like Kolly Kibber
D                            G
Launched from a ghost trains oh so unceremoniously
F                      D
To the beautiful briny sea

            
            
Suggest correction
Creating personal tab
Creating personal tab
You can edit any tab online and save it as your Personal.

You can edit, replace or remove any tab part or add personal notes – all changes will be seen only by you.

Personal tabs can be accessed anytime from any device, even offline.
Learn more »
comments
print report bad tab
guest
You may want to rate the tab now too:
select rating
Wanna post a correction for this tab? Suggest correction