Oops, an error
Loading. Please wait.

Better Days tab

version 2
version 2

Whole song

Interactive

Video

32,651 views 9 this week
3 commentsread comments
1 2 3 4 5
x 18
add to favorites
×
Save as Personal and add changes to this tab that will be seen only by you. Learn more ›
×
You can save this tab as Personal to edit and correct it or add notes. All changes will be seen only by you. Learn more »
launch autoscroll
font size
0
reset
how to read this tab
guitar tuner
edit
Autoscroll
slow
fast
+/-
esc
set tempo
stop
Better Days – Pete Murray

EADGBe
Capo 1

     F   C  Em  Am   G   C
E|---0---0---0---0---3---3---|
B|---1---1---0---1---0---3---|
G|---2---0---0---2---0---0---|
D|---3---2---2---2---0---2---|
A|---3---3---2---0---x---3---|
E|---x---3---0---x---3---x---|

Verses                          Chorus
| F | C | Em | Am |     | C/Em | Am/F |(6x)     | F |(after 6th time)
| F | C | Em | Em |
| F | C | Em | Am |
| F | C | Em | Em |

Verse
    F                       C        Em         Am
e---x--x---x---x-x--x--|----0----|----0----|----x----x---x-x-x---|
B---1--1---1---1-1--1--|----1----|----0----|----1----1---1-1-1---|
G---2--0---0-—-0h2--0--|----0----|----0----|----2----0---2-2-0---|
D---3--3---3---3-3--3--|----2----|----2----|----2----0---2-2-0---|
A---3--3---3---3-3--3--|----3----|----2----|----0----0---0-0-0---|
E---x--x---x---x-x--x--|----3----|----0----|----x----x---x-x-----|

     F                       C        Em         Em
e----x--x---x---x-x--x--|----0----|----0----|----x----|
B----1--1---1---1-1--1--|----1----|----0----|----1----|
G----2--0---0-—-0h2--0--|----0----|----0----|----2----| 2x
D----3--3---3---3-3--3--|----2----|----2----|----2----|
A----3--3---3---3-3--3--|----3----|----2----|----0----|
E----x--x---x---x-x--x--|----3----|----0----|----x----|

Chorus
     C   Em       Am       F
e----0---0----|----0---0---x----|
B----1---0----|----1---1---1----|
G----0---0----|----2-—-0---2----|       6x
D----2---2----|----2---0---3----|
A----3---2----|----0---0---3----|
E----3---0----|----x---x---x----|

F
e---x--x---x---x-x--x--|
B---1--1---1---1-1--1--|
G---2--0---0-—-0h2--0--|        Alter 6th bar
D---3--3---3---3-3--3--|
A---3--3---3---3-3--3--|
E---x--x---x---x-x--x--|

CELLO (Played over chorus)
Just a C-Major scale (actually technically it's C sharp, but meh)
E------------------|-------------------|
B------------------|-------------------|
G-----------5---2--|----------0--5v----|
D----0--2----------|----0--2-----------|
A--3---------------|--3----------------|
E------------------|-------------------|

Cello Solo
E------------------------------------------------------------|
B--5---------------------------------------------------------|
G-----7--5/7\5------4-5-4--2----4/5\4------------------------|
D--------------5----------------------5/7--------------------|
A------------------------------------------------------------|
E------------------------------------------------------------|

E------------------------------------------------------------|
B--5--------------------------8----------------8-------------|
G-----7--5/7\5------4-5--4---------4-5-4-5-------------------|
D--------------5---------------------------------------------|
A------------------------------------------------------------|
E------------------------------------------------------------|
Suggest correction
Creating personal tab
Creating personal tab
You can edit any tab online and save it as your Personal.

You can edit, replace or remove any tab part or add personal notes – all changes will be seen only by you.

Personal tabs can be accessed anytime from any device, even offline.
Learn more »
comments
print report bad tab
3 comments total.
0 reply
Trickstar 83 Jan 21, 2007 01:43 PM

Best tab on this site by far. Excellent work mate. One small correction though for the cello bit.

E------------------|-------------------|
B------------------|-------------------|
G-----------5---2--|----------0--5v----|
D----0--2----------|----0--2-----------|
A--3---------------|--3----------------|
E------------------|-------------------|

Should be
E------------------|-------------------|
B------------------|-------------------|
G------------------|-------------------|
D----0--2----5--2--|----0--2--5v-------|
A--3---------------|--3----------------|
E------------------|-------------------|

Other than that, amazing job on a great song!

0 reply
cb21990 10 Feb 08, 2007 01:34 PM

agree nice tab, trick is right about the cello part. thx

0 reply
jessonguitar 21 May 17, 2008 04:06 PM

Heeps good tab

guest
You may want to rate the tab now too:
select rating
Wanna post a correction for this tab? Suggest correction