Oops, an error
Loading. Please wait.

Lines tab

version 2
version 2

Whole song

Interactive

3,459 views 1 this week
3 commentsread comments
1 2 3 4 5
x 6
add to favorites
×
Save as Personal and add changes to this tab that will be seen only by you. Learn more ›
×
You can save this tab as Personal to edit and correct it or add notes. All changes will be seen only by you. Learn more »
launch autoscroll
font size
0
reset
how to read this tab
guitar tuner
edit
Autoscroll
slow
fast
+/-
esc
set tempo
stop
-----------------------------------------------------------------------------
                             SONG NAME - Band Name
-----------------------------------------------------------------------------
Tabbed by: Anthony C (rhcp_guitarist @ UG)


Tuning: standard (ebgdae)

This is for a version without a capo

Intro/verse: overdrive
e|-----------------------------------------------|
B|-----------------------------------------------|
G|-----------------------------------------------| 
D|-----------------------------------------------|
A|---4-5-4-------4------6/-----------------------|
E|-2--------25-5---7-7---------------------------|


Chorus: Guitar 1 (overdrive) strumming
e|-----------------------------------------------|
B|-----------------------------------------------|
G|-7-------9-------------------------------------| 
D|-7-------9------4-------7----------------------|
A|-5-------7------4-------7----------------------|
E|----------------2-------5----------------------|
   D5      E5     F#5     A5

Chorus: guitar 2 (clean)strumming
e|----------------2-------0----------------------|
B|-3-----5--------2-------0----------------------|
G|-2-----4--------2-------2----------------------| 
D|-4-----6--------4-------2----------------------|
A|-5-----7--------4-------0----------------------|
E|----------------2------------------------------|
   D     E     F# min   Asus2

Alternatively play a Dsus2 instead of my 5th fret D, 
and an open position E chord instead. 
 

chorus again
then Bridge: ("if you ever decide to call..."
Guitar 1 (overdrive) strumming
e|--------------------------------------------|
B|--------------------------------------------|
G|-9999999---7777777----9999999----7777777----| 
D|-9999999---7777777----9999999----7777777----|
A|-7777777---5555555----7777777----5555555----|
E|--------------------------------------------|
or just play D's and E's in open position

            
            
Suggest correction
Creating personal tab
Creating personal tab
You can edit any tab online and save it as your Personal.

You can edit, replace or remove any tab part or add personal notes – all changes will be seen only by you.

Personal tabs can be accessed anytime from any device, even offline.
Learn more »
comments
print report bad tab
3 comments total.
0 reply
CustomMade 20 Jan 23, 2005 07:00 PM

Pete Murray himself plays with a capo II so... I guess that makes him a newbie?

0 reply
rhcp_guitarist 248 May 28, 2005 08:00 PM, edited on November 9 2014, 09:44 pm

Updated tab

0 reply
finchenelly 10 Oct 30, 2009 11:57 PM

if a capo makes things easier, it makes sense to use one.

guest
You may want to rate the tab now too:
select rating
Wanna post a correction for this tab? Suggest correction