Oops, an error
Loading. Please wait.

Pure And Easy bass

10 views 1 this week
no commentswrite comment
1 2 3 4 5
3 more votes to show rating
add to favorites
×
Save as Personal and add changes to this tab that will be seen only by you. Learn more ›
×
You can save this tab as Personal to edit and correct it or add notes. All changes will be seen only by you. Learn more »
launch autoscroll
font size
0
reset
guitar tuner
edit
Autoscroll
slow
fast
+/-
esc
set tempo
stop
[Intro]                                                                   
G|--------------------------------|--------------------------------|
D|--------------------------------|--------------------------------|
A|--------------------------------|3-------------------------------|
E|--------------------------------|--------------------------------| 
                                                                    
G|--------------------------------|--------------------------------|
D|--------------------------------|--------------------------------|
A|------------------------------3-|--------------------------------|
E|--------------------------------|--------------------------------|
 
                                   [Verse]                                 
G|--------------------------------|--------------------------------|
D|--------------------------------|--------------------------------|
A|------------------------------3-|--------------------------------|
E|--------------------------------|--------------------------------|
                                                                     
G|--------------------------------|--------------------------------|
D|--------------------------------|--------------------------------|
A|--------------------------------|3-------------------------------|
E|--------------------------------|--------------------------------|
                                                                     
G|--------------------------------|--------------------------------|
D|--------------------------------|--------------------------------|
A|--------------------------------|3-------------------------------|
E|--------------------------------|--------------------------------|
                                                                     
G|--------------------------------|--------------------------------|
D|--------------------------------|--------------------------------|
A|--------------------------------|3-------------------------------|
E|--------------------------------|--------------------------------|
 
                                   [Pre-Chorus]                              
G|--------------------------------|--------------------------------|
D|--------------------------------|3-------------------------------|
A|--------------------------------|--------------------------------|
E|--------------------------------|--------------------------------| 
                                                                    
G|--------------------------------|--------------------------------|
D|--------------------------------|3-------------------------------|
A|--------------------------------|--------------------------------|
E|--------------------------------|--------------------------------|
                                                                     
G|--------------------------------|--------------------------------|
D|--------------------------------|--------------------------------|
A|------------------------------3-|--------------------------------|
E|--------------------------------|--------------------------------| 
                                                                    
G|--------------------------------|--------------------------------|
D|--------------------------------|--------------------------------|
A|------------------------------3-|--------------------------------|
E|--------------------------------|--------------------------------|
 
                                   [Chorus]                                 
G|--------------------------------|--------------------------------|
D|--------------------------------|--------------0---------------3-|
A|--------------------------------|3-------------------------------|
E|--------------------------------|--------------------------------| 
                                                                    
G|--------------0-----------------|--------------------------------|
D|--------------------------------|--------------0---------------3-|
A|------------------------------3-|--------------------------------|
E|--------------------------------|--------------------------------| 
                                                                    
G|--------------0-----------------|------------------------------0-|
D|--------------------------------|0-------------2-----------------|
A|--------------------------------|--------------------------------|
E|--------------------------------|--------------------------------|
                                                                     
G|--------------2-----------------|----------------------0---------|
D|--------------------------------|--------------------2-------0---|
A|--------------------------------|--------------------3---------2-|
E|------------------------------3-|------3-------3---------------3-|
                                                                    
G|--------------------------------|--------------0-----------------|
D|--------------------------------|------------0---2---------------|
A|--------------------------------|------------------2-------------|
E|------3-------3-------3-------3-|------3-------------3---3-----3-|
 
                                   [Verse 2]                                 
G|--------------------------------|--------------------------------|
D|--------------------------------|0-------0-----0-------0-------0-|
A|--------------------------3-----|--------------------------------|
E|------3-------3-------3---------|--------------------------------| 
                                                                    
G|------------------------------0-|------0-------0-------0---------|
D|------0-------0-------0---3-----|--3---------------------------3-|
A|--------------------------------|--------------------------------|
E|--------------------------------|--------------------------------|
                                                                     
G|--------------------------------|0-------------0-------0-------0-|
D|--------------2-----------0-----|--------------------------3-----|
A|--------------------------------|--------------------------------|
E|----------------------3---------|------------3-------------------| 
                                                                    
G|--------------0-----------------|2-----2-------2-------0---------|
D|----------0---------3---2-------|--------------------------------|
A|--------------------------3-----|--------------------------------|
E|------3-------------------------|--------------------------------| 
                                                                    
G|------------------4-------0---2-|------------2---2---------0-----|
D|2---2-------2-------------------|------------------------------2-|
A|--------------------------------|--------------------------------|
E|--------------------------------|--------------------------------|
                                                                     
G|----------------------------0-2-|------------2-2-----------------|
D|--2---2-----------2---2---------|--------------------------------|
A|--------------------------------|--------------------------------|
E|--------------------------------|--------------------------------|
 
                                   [Chorus 2]                                 
G|2-------2-------2-------2---2---|--------------------------------|
D|--------------------------------|--------------0---------------3-|
A|------------------------------3-|3-------------------------------|
E|--------------------------------|--------------------------------|
                                                                    
G|--------------0-----------------|--------------------------------|
D|--------------------------------|--------------0---------------3-|
A|------------------------------3-|--------------------------------|
E|--------------------------------|--------------------------------| 
                                                                    
G|--------------0-----------------|------------------------------0-|
D|--------------------------------|0-------------2-----------------|
A|--------------------------------|--------------------------------|
E|--------------------------------|--------------------------------|
                                                                     
G|--------------2-----------------|----------------------0---------|
D|--------------------------------|--------------------2-------0---|
A|--------------------------------|--------------------3---------2-|
E|--------------------------------|3-----3-------3---------------3-|
                                                                    
G|--------------------------------|--------------0-----------------|
D|--------------------------------|------------0---2---------------|
A|--------------------------------|------------------2-------------|
E|------3-------3-------3-------3-|------3-------------3---3-----3-|
 
                                   [Verse 3]                                 
G|--------------------------------|--------------------------------|
D|--------------------------------|0-------0-------0-----0---------|
A|--------------------------3-----|--------------------------------|
E|------3-------3-------3---------|--------------------------------|
                                                                    
G|------------------------------0-|------0-------0-------0---------|
D|0-----0-------0-------0---3-----|--3-----------------------------|
A|--------------------------------|--------------------------------|
E|--------------------------------|--------------------------------|
                                                                     
G|------------------------------0-|--------------0-------0-------0-|
D|3---------------2---------0-----|--------------------------3-----|
A|--------------------------------|--------------------------------|
E|----------------------3---------|------------3-------------------|
                                                                     
G|----------------0---------------|2-----2-------2-------0---------|
D|------------0-----3---2---------|--------------------------------|
A|--------------------------3-----|--------------------------------|
E|------3-------------------------|--------------------------------|
                                                                    
G|--------------------------0---2-|------------2---2---------0-----|
D|2-2-----2-----------------------|------------------------------2-|
A|--------------------------------|--------------------------------|
E|--------------------------------|--------------------------------| 
                                                                    
G|----------------------------0-2-|------------2-2-----------------|
D|--2---2-----------2---2---------|--------------------------------|
A|--------------------------------|--------------------------------|
E|--------------------------------|--------------------------------|
 
                                   [Interlude]                                 
G|2-------2-------2-------2---2---|--------------------------------|
D|--------------------------------|--------------------------------|
A|--------------------------------|0-------------------------------|
E|--------------------------------|--------------------------------| 
                                                                    
G|--------------------------------|--------------------------------|
D|--------------------------------|3---------------3-------3-------|
A|3-------------------------------|--------------------------------|
E|--------------------------------|--------------------------------|
                                                                     
G|0-------------------------------|--------------------------------|
D|--------------------------------|--------------------------------|
A|--------------------------------|0-------------------------------|
E|--------------------------------|--------------------------------|
                                                                     
G|--------------------------------|--------------------------------|
D|--------------------------------|3-------------------------------|
A|3-------------------------------|--------------------------------|
E|--------------------------------|--------------------------------| 
                                                                    
G|0-------------------------------|--------------------------------|
D|--------------------------------|--------------------------------|
A|--------------------------------|0-------------------------------|
E|--------------------------------|--------------------------------|
                                                                     
G|--------------------------------|--------------------------------|
D|--------------------------------|3-------------------------------|
A|3-------------------------------|--------------------------------|
E|--------------------------------|--------------------------------|
                                                                     
G|0-------------------------------|--------------------------------|
D|--------------------------------|--------------------------------|
A|--------------------------------|0-------------------------------|
E|--------------------------------|--------------------------------|
                                                                     
G|--------------------------------|--------------------------------|
D|--------------------------------|3-------------------------------|
A|3-------------------------------|--------------------------------|
E|--------------------------------|--------------------------------|
                                                                    
G|0-------------------------------|--------------------------------|
D|--------------------------------|--------------------------------|
A|--------------------------------|0-------------------------------|
E|--------------------------------|--------------------------------|
                                                                     
G|--------------------------------|--------------------------------|
D|--------------------------------|3-------------------------------|
A|3-------------------------------|--------------------------------|
E|--------------------------------|--------------------------------|
                                                                     
G|0-------------------------------|--------------------------------|
D|--------------------------------|--------------------------------|
A|--------------------------------|3-------------------0-----0-----|
E|--------------------------------|5-------------------------------| 
                                                                    
G|--------------------------------|--------------------------------|
D|0-------------------------------|3-------------------------------|
A|0-------------------0-----0-----|0-------------------0-----0-----|
E|--------------------------------|--------------------------------|
 
                                   [Guitar solo]                                 
G|0-------------------------------|--------------------------------|
D|--------------------------------|--------------------------------|
A|0-------------------0-----0-----|0-------------------0-----0-----|
E|--------------------------------|8-------------------------------|
                                                                    
G|--------------------------------|--------------------------------|
D|0-------------------------------|3-------------------------------|
A|0-------------------0-----0-----|0-------------------0-----0-----|
E|--------------------------------|--------------------------------| 
                                                                    
G|0-------------------------------|--------------------------------|
D|--------------------------------|--------------------------------|
A|0-------------------0-----0-----|3-------------------0-----0-----|
E|--------------------------------|5-------------------------------| 
                                                                    
G|--------------------------------|--------------------------------|
D|0-------------------------------|3-------------------------------|
A|0-------------------0-----0-----|0-------------------0-----0-----|
E|--------------------------------|--------------------------------| 
                                                                    
G|0-------------------------------|--------------------------------|
D|--------------------------------|--------------------------------|
A|0-------------------0-----0-----|0-------------------0-----0-----|
E|--------------------------------|8-------------------------------|
                                                                     
G|--------------------------------|--------------------------------|
D|0-------------------------------|3-------------------------------|
A|0-------------------0-----0-----|0-------------------0-----0-----|
E|--------------------------------|--------------------------------|
 
                                   [Chorus 3]                                 
G|0-------------------------------|--------------------------------|
D|--------------------------------|--------------------------------|
A|0-------------------0-----0-----|3-------------------------------|
E|--------------------------------|--------------------------------|
                                                                     
G|--------------------------------|--------------------------------|
D|--------------------------------|--------------------------------|
A|--------------------------------|--------------------------------|
E|--------------------------------|--------------------------------| 
                                                                    
G|--------------------------------|------------------------------0-|
D|--------------------------------|0-------------2-----------------|
A|--------------------------------|--------------------------------|
E|--------------------------------|--------------------------------|
                                                                     
G|--------------2-----------------|----------------------0---------|
D|--------------------------------|--------------------2-------0---|
A|--------------------------------|--------------------3---------2-|
E|------------------------------3-|3-----3-------3---------------3-|
                                                                     
G|--------------------------------|--------------0-----------------|
D|--------------------------------|------------0---2---------------|
A|--------------------------------|------------------2-------------|
E|------3-------3-------3-------3-|------3-------------3---3-----3-|
 
                                   [Verse 4]                                 
G|--------------------------------|--------------------------------|
D|--------------------------------|--------------------------------|
A|--------------------------------|3-------------------------------|
E|------3-------3-------3---------|--------------------------------|
                                                                    
G|--------------------------------|--------------------------------|
D|--------------------------------|--------------------------------|
A|--------------------------------|3-------------------------------|
E|--------------------------------|--------------------------------|
                                                                     
G|--------------------------------|--------------------------------|
D|--------------------------------|--------------------------------|
A|--------------------------------|3-------------------------------|
E|--------------------------------|--------------------------------| 
                                                                    
G|--------------------------------|--------------------------------|
D|--------------------------------|--------------------------------|
A|--------------------------------|3-----------3---3---------------|
E|--------------------------------|--------------------------------|
                                                                     
G|--------------------------------|--------------------------------|
D|--------------------------------|--------------------------------|
A|3-----------3---3---------------|3---------3---3---------------3-|
E|--------------------------------|--------------------------------|
 
                                   [Outro]                                 
G|--------------------------------|2-------------------------------|
D|--------------------------------|--------------------------------|
A|------------3---2-------1-------|0-------------------------------|
E|--------------------------------|--------------------------------| 
                                                                    
G|--------------------------------|--------------------------------|
D|--------------------------------|--------------------------------|
A|--------------------------------|--------------------------------|
E|--------------------------------|--------------------------------|
                                                                     
G|--------------------------------|2-------2-------0-----------0---|
D|--------------------------------|--------------------------------|
A|--------------------------------|--------------------------------|
E|--------------------------------|--------------------------------|
                                                                    
G|--------------------------------|2-------2-------0-----------0---|
D|----0---------------------------|--------------------------------|
A|--------------------------------|--------------------------------|
E|--------------------------------|--------------------------------| 
                                                                    
G|--------------------------------|2-------2-------0-----------0---|
D|----0---------------------------|--------------------------------|
A|--------------------------------|--------------------------------|
E|--------------------------------|--------------------------------|
                                                                     
G|--------------------------------|2-------2-------0-----------0---|
D|----0---------------------------|--------------------------------|
A|--------------------------------|--------------------------------|
E|--------------------------------|--------------------------------|
                                                                     
G|--------------------------------|2-------2-------0-----------0---|
D|----0---------------------------|--------------------------------|
A|--------------------------------|--------------------------------|
E|--------------------------------|--------------------------------|
                                                                     
G|------------------------7-------|2-------2-------0-----------0---|
D|----0---0-----------------------|--------------------------------|
A|--------------------------------|--------------------------------|
E|--------------------------------|--------------------------------| 
                                                                    
G|--------------------------------|2-------2-------0-----------0---|
D|----0---0-----------------------|--------------------------------|
A|--------------------------------|--------------------------------|
E|--------------------------------|--------------------------------|
                                                                     
G|------------------------7-------|2-------2-------0-----------0---|
D|----0---0-----------------------|--------------------------------|
A|--------------------------------|--------------------------------|
E|--------------------------------|--------------------------------|
                                                                     
G|--------------------------------|2-------2-------0-----------0---|
D|----0---0-----------------------|--------------------------------|
A|--------------------------------|--------------------------------|
E|--------------------------------|--------------------------------|
                                                                     
G|------------------------7-------|2-------2-------0-----------0---|
D|----0---0-----------------------|--------------------------------|
A|--------------------------------|--------------------------------|
E|--------------------------------|--------------------------------|
                                                                   
G|------------------------7-------|--------------------------------|
D|----0---0-----------------------|--------------------------------|
A|--------------------------------|--------------------------------|
E|--------------------------------|--------------------------------|
Suggest correction
Creating personal tab
Creating personal tab
You can edit any tab online and save it as your Personal.

You can edit, replace or remove any tab part or add personal notes – all changes will be seen only by you.

Personal tabs can be accessed anytime from any device, even offline.
Learn more »
Give kudos to tab author, rate the tab!
1 2 3 4 5
comments
print report bad tab
guest
You may want to rate the tab now too:
select rating
Wanna post a correction for this tab? Suggest correction