Oops, an error
Loading. Please wait.

Como Pajaros En El Aire tab

103 views 1 this week
no commentswrite comment
1 2 3 4 5
3 more votes to show rating
add to favorites
×
Save as Personal and add changes to this tab that will be seen only by you. Learn more ›
×
You can save this tab as Personal to edit and correct it or add notes. All changes will be seen only by you. Learn more »
launch autoscroll
font size
0
reset
how to read this tab
guitar tuner
edit
Autoscroll
slow
fast
+/-
esc
set tempo
stop
BUENO, LES DEJO LA TABLATURA DE LA INTRO
DE "COMO PAJAROS EN EL AIRE", DE PETECO.

ACLARACIONES: LOS NÚMEROS DE LA IZQUIERDA
SON LAS CUERDAS, LOS ESPACIOS CRECEN DE
IZQUIERDA A DERECHA. Y LO MAS IMPORTANTE,
LOS NÚMEROS QUE ESTÁN DENTRO DE CADA DIAGRAMA
REPRESENTAN EL ORDEN EN QUE SE DEBE TOCAR
CADA NOTA. PRESTENLE ATENCIÓN A LAS ACLARACIONES
DE LOS DIAGRAMAS I, IV y V
EN TODOS LOS DIAGRAMAS APARECE HASTA EL 4TO ESPACIO,
INCLUSO EN EL VI, DONDE EL 4TO ESPACIO ES MAS
ANCHO.
ABAJO LES DEJO LAS NOTAS. SUERTE!


DIAGRAMA I:

1|-----|-----|-----|-----
2|--3--|--2--|-----|--1--
3|-----|-----|--4--|-----   (DOS VECES)
4|--5--|-----|-----|-----
5|-----|-----|-----|-----
6|-----|-----|-----|-----

DIAGRAMA II:

1|--1--|-----|-----|-----
2|--4--|--3--|-----|--2--
3|--5--|-----|-----|-----
4|-----|-----|-----|-----
5|-----|-----|-----|-----
6|-----|-----|-----|-----

DIAGRAMA III:

1|-----|-----|-----|-----
2|--2--|--1--|-----|-----
3|--4--|-----|-3/5-|-----
4|-----|-----|-----|-----
5|-----|-----|-----|-----
6|-----|-----|-----|-----

DIAGRAMA IV:

1|-----|-----|-----|-----
2|--1--|-----|-----|-----
3|--3--|-----|--2--|----- (DESPUES DE 3, VA LA 3RA AL AIRE)
4|-----|-----|-----|-----
5|-----|-----|-----|-----
6|-----|-----|-----|-----

DIAGRAMA V:

1|-----|-----|-----|-----
2|-----|-----|-----|-----
3|--7--|-----|--8--|----- (6 ES 3RA AL AIRE)
4|--4--|-----|--5--|-----
5|--1--|-----|--2--|--3--
6|-----|-----|-----|-----

DIAGRAMA VI:

1|-----|-----|-----|-----------|
2|-4/5-|-6/12|-----|7/8/9/10/11|
3|-1/2-|-----|--3--|-----------|
4|-----|-----|-----|-----------|
5|-----|-----|-----|-----------|
6|-----|-----|-----|-----------|

LUEGO, ACORDE DE SOL# Y EMPIEZA LA CANCIÓN.


NOTAS: (según diagramas)

RE#  DO#  DO   LA#  RE# (dos veces)
FA   RE#  DO#  DO   SOL#
DO#  DO   LA#  SOL# LA#
DO   LA#  SOL# SOL
LA#  DO   DO#  RE#  FA  SOL SOL# LA#
SOL# SOL# LA#  DO   DO  DO# RE#  RE# RE# RE# RE# DO#

ACORDE DE SOL#


Acomódenlo después al tono que quieran.
Escriban, ante cualquier duda a aguinaga_89@

            
            
Suggest correction
Creating personal tab
Creating personal tab
You can edit any tab online and save it as your Personal.

You can edit, replace or remove any tab part or add personal notes – all changes will be seen only by you.

Personal tabs can be accessed anytime from any device, even offline.
Learn more »
Give kudos to tab author, rate the tab!
1 2 3 4 5
comments
print report bad tab
guest
Wanna post a correction for this tab? Suggest correction