Oops, an error
Loading. Please wait.

Digo La Telesita tab

220 views 3 this week
no commentswrite comment
1 2 3 4 5
3 more votes to show rating
add to favorites
×
Save as Personal and add changes to this tab that will be seen only by you. Learn more ›
×
You can save this tab as Personal to edit and correct it or add notes. All changes will be seen only by you. Learn more »
launch autoscroll
font size
0
reset
how to read this tab
guitar tuner
edit
Autoscroll
slow
fast
+/-
esc
set tempo
stop
Esta es la introducción a "Digo la telesita" tal como Peteco la toca
en este video: 
Los acordes en la tablatura que hizo sebastián están bien, lo único es que
(al menos en esta versión) los acordes que peteco toca en la introducción
son otros, el resto es tal y como está en su tablatura.
No me puse a sacar un montón de armonizaciones que hace peteco en ese video,
es una cuenta pendiente, ya que es una versión excelente y una verdadera
escuela de la guitarra!

Como acotación, escuchen cómo toca peteco los arreglos, sosteniéndolos,
haciendo vibrar cada nota, está bueno tocarlo así, una tecnica muy usada
en el folklore (yo conocí esa sonoridad con atahualpa). No lo
puse en la tablatura para que quede más limpia.

Saludos

PD: modifiqué porq me di cuenta que había subido una mezcla de dos formas
en que habia sacado la introducción.. disculpen

-------------------------------------------------------------------------------

    F#  Bm
e-|-2---2-----------------------2h4p2--0--5--2---------------------------|-
B-|-2---3-------3---2---0-------3------2--7--3---------------------------|-
G-|-3---3-------4---4---2--2---------------------------------------------|-
D-|-2---4------------------4---------------------------------------------|-
A-|-4---2----------------------------------------------------------------|-
E-|-2---X----------------------------------------------------------------|-

e-|----------------------------------------------------------------------|-
B-|--3---2---0-------3--2------------------------------------------------|-
G-|--4---4---2--2----------3--4--------------------------------------------|-
D-|-------------4----4--2------------------------------------------------|-
A-|------------------------4--5--------------------------------------------|-
E-|----------------------------------------------------------------------|-

[Introducción]
        Bm F#m7 Em7 Bm
        Bm F#m7 E5-F#5 (F#7)*-Bm

* acá puede tocarse cualquiera de los dos: peteco toca el F#5

(de aquí en más la versión de Sebastian:


-------------------------------------------------------------------------------

  EADGBe    EADGBe   EADGBe    EADGBe
2 OOOOOO    ||||||   |||xxx    ||||||
  ||||||    |O||||   |OO|||  2 O||xxx
  |O||||    ||||O|   ||||||    ||||||
  ||||O|    ||||||   ||||||    |OO|||
   F#m7      Em7       E5        F#5
Suggest correction
Creating personal tab
Creating personal tab
You can edit any tab online and save it as your Personal.

You can edit, replace or remove any tab part or add personal notes – all changes will be seen only by you.

Personal tabs can be accessed anytime from any device, even offline.
Learn more »
Give kudos to tab author, rate the tab!
1 2 3 4 5
comments
print report bad tab
guest
Wanna post a correction for this tab? Suggest correction