Oops, an error
Loading. Please wait.

La Amorosa tab

98 views 6 this week
no commentswrite comment
1 2 3 4 5
3 more votes to show rating
add to favorites
×
Save as Personal and add changes to this tab that will be seen only by you. Learn more ›
×
You can save this tab as Personal to edit and correct it or add notes. All changes will be seen only by you. Learn more »
launch autoscroll
font size
0
reset
how to read this tab
guitar tuner
edit
Autoscroll
slow
fast
+/-
esc
set tempo
stop
TODA la  canción debe realizarse con transporte
en el 2do traste.

Intro:
1|-----0--------0---------2-|-----2--------4--------5--|
2|-----2--------2--0--0---3-|--0--3--1--1--5--2--2--5--|
3|--2--2--2--3--0---------2-|-----2--------4-----------|
4|--------------------------|--------------------------|
5|--------------------------|--------------------------|
6|--------------------------|--------------------------|

1|-----0-----0------0-----0-------2-|-0--1--0----------|
2|--2-----2------2-----2-------3----|----------4--2--3-|
3|----------------------------------|------------------|
4|-2-----2-----2------2------0------|------------------|
5|----------------------------------|------------------|
6|----------------------------------|------------------|

1|--7--4--2--0--2--------0---------|--------------------|
2|--8--5--3--0--3------3----2--2--3|--------------------|
3|-------------------2------2------|--------------------|
4|-----------------0--------2------|--------------------|
5|---------------------------------|------------0--2-3-4|
6|---------------------------------|0----0--2-4---------|


  A        B7        E7
Arden mis labios por tí
               A
muriendomé de amor
                 B7
porque eres mi dueña,
E7  D   A      E7   A
santiagueña de mi corazón.

 A               B7
porque eres mi dueña,
E7  D    A     E7   A
santiagueña de mi corazón.

 A         B7       E7
Temblando vuelves a mí
              A
dejandomé tu adios
           B7
tus manos pequeñas
E7  D     A    E7    A
santiagueña de mi corazón.

Punteo:
1|--0--2--4--5--7--9--9--7--9--5--4--4--7--4--2-|
2|-----------------10-10-8--10-6--5--5--8--5--3-|
3|----------------------------------------------|
4|----------------------------------------------|
5|----------------------------------------------|
6|----------------------------------------------|

1|--0--0--2--0--------|
2|--0--0--3--0--3--2--|
3|--------------0--2--|
4|--------------------|
5|--------------------|
6|--------------------|

                      Riff
1|-----------------------------------|
2|-----------------------------------|
3|-----------------------------------|
4|-----------0--2--------3--2--0-----|
5|--0--2--3--------3--0-----------2--|
6|-----------------------------------|


                Riff
Dormiran mis ojos sobre tu pelo

E7                  A
como las habras al sol,
          A7
amorosa flor de mi tierra
Dm                 E7             A
miel santiagueña, dulce como el mistol.
                 B7
Mis sueños te sueñan,
E7  D    A     E7   A
santiagueña de mi corazón.

Intro:

1|-----0--------0---------2-|-----2--------4--------5--|
2|-----2--------2--0--0---3-|--0--3--1--1--5--2--2--5--|
3|--2--2--2--3--0---------2-|-----2--------4-----------|
4|--------------------------|--------------------------|
5|--------------------------|--------------------------|
6|--------------------------|--------------------------|

1|-----0-----0------0-----0-------2-|-0--1--0----------|
2|--2-----2------2-----2-------3----|----------4--2--3-|
3|----------------------------------|------------------|
4|-2-----2-----2------2------0------|------------------|
5|----------------------------------|------------------|
6|----------------------------------|------------------|

1|--7--4--2--0--2--------0---------|
2|--8--5--3--0--3------3----2--2--3|
3|-------------------2------2------|
4|-----------------0--------2------|
5|---------------------------------|
6|---------------------------------|


  A      B7         E7
Lloran mis ojos por tí
  E7          A
lágrimas de pasión
           B7
si tu me desdeñas,
E7   D   A     E7    A
santiagueña de mi corazón.
           B7
Si tu me desdeñas,
E7   D    A    E7    A
santiagueña de mi corazón.

 A         B7        E7
Rezo tu nombre al partir
  E7             A
llamandomé tu voz
          B7
carita risueña,
E7   D    A    E7    A
santiagueña de mi corazón.

Punteo:
1|--0--2--4--5--7--9--9--7--9--5--4--4--7--4--2-|
2|-----------------10-10-8--10-6--5--5--8--5--3-|
3|----------------------------------------------|
4|----------------------------------------------|
5|----------------------------------------------|
6|----------------------------------------------|

1|--0--0--2--0--------|
2|--0--0--3--0--3--2--|
3|--------------0--2--|
4|--------------------|
5|--------------------|
6|--------------------|

              Riff
Dormirán mis ojos sobre tu pelo...

Desde Bragado , espero que les 

            
            
Suggest correction
Creating personal tab
Creating personal tab
You can edit any tab online and save it as your Personal.

You can edit, replace or remove any tab part or add personal notes – all changes will be seen only by you.

Personal tabs can be accessed anytime from any device, even offline.
Learn more »
Give kudos to tab author, rate the tab!
1 2 3 4 5
comments
print report bad tab
guest
Wanna post a correction for this tab? Suggest correction