Oops, an error
Loading. Please wait.

Never Made It tab

108 views 1 this week
1 commentread comment
1 2 3 4 5
2 more votes to show rating
add to favorites
×
Save as Personal and add changes to this tab that will be seen only by you. Learn more ›
×
You can save this tab as Personal to edit and correct it or add notes. All changes will be seen only by you. Learn more »
launch autoscroll
font size
0
reset
how to read this tab
guitar tuner
edit
Autoscroll
slow
fast
+/-
esc
set tempo
stop
Author
hi Folks, i see.. need to find the bog? :D :), so this is my cover from Peter and the test 
tube babies - Never made it! 

more informations? need that i edit a cover from the same band?: machine_sk8@hotmail.fr

don't forget to rate me please!

enjoy !

*=palm mute
/= slide
~= bend




Intro:

e | --------------------------------------------------------- |
b | --------------------------------------------------------- |
g |7 --------------------------------------------7------------| X2
d |7*7*7*7*7*7*7*7*6*6*6*6*6*6*6*5*5*5*5*5*5*5---7------------|
a |5 --------------------------------------------5------------|
e | ----------------------------------------------------------|


e | 3-1-------1-3-1-3-5-3-1-5-3-1-1-3-5-8-6-5-1~--------------|
b | ----4-2-4-------------------------------------------------|
g | ----------------------------------------------------------|
d | ----------------------------------------------------------|
a | ----------------------------------------------------------|
e | ----------------------------------------------------------|

Verses :

e | ----------------------------------------------------------|
b | ----------------------------------------------------------|
g | -------------------7/10----------5------------------------|
d | -------------------7/10----------5-5----------------------| X4
a | -------------------5/8-8*8*8*8*8-3-5----------------------|
e | 5*5*5*5*5*5*5*5*5*5----------------3----------------------|

Chorus:

e | ----------------------------------------------------------|
b | ----------------------------------------------------------|
g | ------------------------------------------------7-7-7-7-7-|
d | *7--*7*7*7*7*7--*6--*6*6*6*6*6--*5--*5*5*5*5*5--7-7-7-7-7-| X4
a | ------------------------------------------------5-5-5-5-5-|
e | ----------------------------------------------------------|

Outro:

e | 3-1-------1-3-1-3-5-3-1-5-3-1-1-3-5-8-6-5-1~--------------|
b | ----4-2-4-------------------------------------------------|
g | ----------------------------------------------------------|
d | ----------------------------------------------------------|
a | ----------------------------------------------------------|
e | ----------------------------------------------------------|

Verses :

e | ----------------------------------------------------------|
b | ----------------------------------------------------------|
g | -------------------7/10----------5------------------------|
d | -------------------7/10----------5-5----------------------| X4
a | -------------------5/8-8*8*8*8*8-3-5----------------------|
e | 5*5*5*5*5*5*5*5*5*5----------------3----------------------|

Chorus:

e | ----------------------------------------------------------|
b | ----------------------------------------------------------|
g | ------------------------------------------------7-7-7-7-7-|
d | *7--*7*7*7*7*7--*6--*6*6*6*6*6--*5--*5*5*5*5*5--7-7-7-7-7-| X4
a | ------------------------------------------------5-5-5-5-5-|
e | ----------------------------------------------------------|

Outro:
e | ----0--------0--------0-----------------------------------|
b | ----------------------------------------------------------|
g | --5---5----5---5----5---5---7-7-7-7-7---------------------|
d | 7--------6--------5---------7-7-7-7-7---------------------| X4
a | ----------------------------5-5-5-5-5---------------------|
e | ----------------------------------------------------------|

e | 3-1-------1-3-1-3-5-3-1-5-3-1-1-3-5-8-6-5-1---------------|
b | ----4-2-4-------------------------------------------------|
g | ----------------------------------------------------------|
d | ----------------------------------------------------------|
a | ----------------------------------------------------------|
e | ----------------------------------------------------------|


Verses :

e | ----------------------------------------------------------|
b | ----------------------------------------------------------|
g | -------------------7/10----------5------------------------|
d | -------------------7/10----------5-5----------------------| X4
a | -------------------5/8-8*8*8*8*8-3-5----------------------|
e | 5*5*5*5*5*5*5*5*5*5----------------3----------------------|

Chorus:

e | ----------------------------------------------------------|
b | ----------------------------------------------------------|
g | ------------------------------------------------7-7-7-7-7-|
d | *7--*7*7*7*7*7--*6--*6*6*6*6*6--*5--*5*5*5*5*5--7-7-7-7-7-| X4
a | ------------------------------------------------5-5-5-5-5-|
e | ----------------------------------------------------------|

Outro:
e | ----0--------0--------0-----------------------------------|
b | ----------------------------------------------------------|
g | --5---5----5---5----5---5---7-7-7-7-7---------------------|
d | 7--------6--------5---------7-7-7-7-7---------------------| X2
a | ----------------------------5-5-5-5-5---------------------|
e | ----------------------------------------------------------|


e | --------------------------------------------------------- |
b | --------------------------------------------------------- |
g |7 --------------------------------------------7------------| X2
d |7*7*7*7*7*7*7*7*6*6*6*6*6*6*6*5*5*5*5*5*5*5---7------------|
a |5 --------------------------------------------5------------|
e | ----------------------------------------------------------|

End:

e | ----0--------0--------0-----------------------------------|
b | ----------------------------------------------------------|
g | --5---5----5---5----5---5---7-7-7-7-7---------------------|
d | 7--------6--------5---------7-7-7-7-7---------------------| Play this until the end... 
a | ----------------------------5-5-5-5-5---------------------|
e | ----------------------------------------------------------|


BOG ON TIME ,BOG ON TIME, BOG ON TIME , TO THE BOOOOG IN TIIIIME!

https://www.youtube.com/watch?v=4YdbElU7yFE
Suggest correction
Creating personal tab
Creating personal tab
You can edit any tab online and save it as your Personal.

You can edit, replace or remove any tab part or add personal notes – all changes will be seen only by you.

Personal tabs can be accessed anytime from any device, even offline.
Learn more »
Give kudos to tab author, rate the tab!
1 2 3 4 5
comments
print report bad tab
1 comment total.
0 reply
Roppies 3,210 Nov 18, 2014 08:51 AM

Intro lead riff is spot on....great job.

guest
You may want to rate the tab now too:
select rating
Wanna post a correction for this tab? Suggest correction