Oops, an error
Loading. Please wait.

Lets Call It Off tab

18,711 views 3 this week
1 commentread comment
1 2 3 4 5
x 13
add to favorites
×
Save as Personal and add changes to this tab that will be seen only by you. Learn more ›
×
You can save this tab as Personal to edit and correct it or add notes. All changes will be seen only by you. Learn more »
launch autoscroll
font size
0
reset
how to read this tab
guitar tuner
edit
Autoscroll
slow
fast
+/-
esc
set tempo
stop
Author
Difficulty
Peter, Bjorn and John - Let's Call It Off


E-----------------------------------------------|
B-----------------------------------------------|
G-----------------------------------------------|
D-------------------4--2------------------------|
A-------------2--4----------0-2-5-4-2-0---------|
E--0--0-2--5-----------------------------2--0---|


E           A          Bm         F#m  D
  When you decided to knock on my door
E           A          Bm         F#m  D
  did you remember what happened before
E           A              Bm           F#m  D
  it just didn't sparkle it just didn't glow
E                A           Bm            F#m
  some things are not better inside of the store

D                D*
did you agree? we should let it be?
    D**
and did you agree?
       Bm  C#m  F#m
it's a must
                           Bm  C#m  F#m
let's call the whole thing off
                    D         Bm  C#m  F#m
will you still have enough of us
                           Bm  C#m  F#m
Let's call the whole thing off
                   D          E
will you still have enough of us

I know many people who act the same way
relations that lasted for more than one day
but I don't wanna know why we couldn't do more
some thing are not better to leave unexplored

Did you agree we should let it bee
and did you agree
it's a must
let's call the whole thing off
will you still have enough of us
Let's call the whole thing off
will you still have enough of us

Chords

E   022100
A   X02220 or 577655
Bm  X24432 or 799877
F#m 244222
D   XX0232
D*  XX0775
D** XX12 11 10 10

            
            
Suggest correction
Creating personal tab
Creating personal tab
You can edit any tab online and save it as your Personal.

You can edit, replace or remove any tab part or add personal notes – all changes will be seen only by you.

Personal tabs can be accessed anytime from any device, even offline.
Learn more »
comments
print report bad tab
1 comment total.
0 reply
RikkyC 155 Mar 11, 2011 05:15 PM

The two riffs in the verses go like this:

E|-------------------------------|
B|-------------------------------|
G|-----------------------6-------|
D|---7---7-9---7-----7-9---9-7---|
A|-9---9-----------9-----------7-|
E|-------------------------------|


E|-------------------------------|
B|---7---------------------------|
G|-------9-6-------------6-------|
D|-7-----------7-----7-9---9-7-9-|
A|-----------------9-------------|
E|-------------------------------|

guest
You may want to rate the tab now too:
select rating
Wanna post a correction for this tab? Suggest correction