Oops, an error
Loading. Please wait.

Do You Feel Like We Do Live bass

version 1
version 1

Whole song

Interactive

4,296 views 9 this week
no commentswrite comment
1 2 3 4 5
x 6
add to favorites
×
Save as Personal and add changes to this tab that will be seen only by you. Learn more ›
×
You can save this tab as Personal to edit and correct it or add notes. All changes will be seen only by you. Learn more »
launch autoscroll
font size
0
reset
guitar tuner
backing track
0:00
0:00
edit
Autoscroll
slow
fast
+/-
esc
set tempo
stop
Author
Difficulty
                             DO YOU FEEL LIKE WE DO (LIVE) - Peter Frampton
-------------------------------------------------------------------------------

Tabbed by: VanHalenPanama
E-mail: Azz17195@hotmail.co.uk

Hey guys this is my first tab so if it's a bit off forgive me. I found there was no tab 
for this so figured it out myself and thought I'd share. I have played it through it 
sounds close enough. Get back to me if you have any queries.

Tuning: Standard


INTRO:
        A      C     D
G|-------------------------------------------------------------------------------|
D|-------------------0-----------------------------------------------------------|
A|-------0-----3-----------------------------------------------------------------|
E|-------------------------------------------------------------------------------|

VERSE
     A                      E
G|---------------------------------------------------------------------------------|
D|---------------------------------------------------------------------------------|
A|--0----0----0---0 ---------------------------------0------0-------0-----0--------|
E|--------------------------0----0-----0-----0-------------------------------------|

CHORUS

G|---------------------------------------------------------------------------------------|
D|----0----0----0-0-----0------3-----3------3-3-----3------------------------------------|
A|-------------------------------------------------------3-------3-----3-3-----3---------|
E|---------------------------------------------------------------------------------------|

G|---------------------------------------------------------------------------------|
D|-0-----0------0-0-----0----------------------------------------------------------|
A|-------------------------------0-----3-------------------------------------------|
E|---------------------------------------------------------------------------------|


BREAKDOWN


G|---------------------------------------------------------------------------------------|
D|-------0-----0-----0-0----0-------3----3-----3-3-----3---------------------------------|
A|-------------------------------------------------------3-----3-----3-3----3------------|
E|---------------------------------------------------------------------------------------|

G|-----------------------------------------------------------------------------------|
D|-------0----0----0-0---0-------------0---------------------------------------------|
A|-----------------------------0--3--------------------------------------------------|
E|-----------------------------------------------------------------------------------|

SONG ORDER
INTRO
VERSE
CHORUS
INTRO
VERSE
CHORUS
INTRO
SOLO
CHORUS
VERSE
CHORUS
BREAKDOWN
SOLO
ENDING

Hope it helps you guys its a killer song and sounds ace to play.

            
            
Suggest correction
Creating personal tab
Creating personal tab
You can edit any tab online and save it as your Personal.

You can edit, replace or remove any tab part or add personal notes – all changes will be seen only by you.

Personal tabs can be accessed anytime from any device, even offline.
Learn more »
comments
print report bad tab
guest
You may want to rate the tab now too:
select rating
Wanna post a correction for this tab? Suggest correction