Oops, an error
Loading. Please wait.

Do You Feel Like We Do Tab

version 1
version 1

Intro

Whole song

Interactive

Video

42,778 views 24 this week
12 commentsread comments
1 2 3 4 5
x 22
add to favorites
launch autoscroll
font size
0
reset
how to read this tab
guitar tuner
backing track
0:00
0:00
×
Best way to learn
"Do You Feel Like We Do"
Autoscroll
slow
fast
+/-
esc
set tempo
stop
This tab is better, for I have seen Frampton live. This is how the intro goes:

e|--------------------------------------------------------------------------|
B|-1---3-1------------------------------------------------------------------|
G|---2-----2-0----0---2-0--------0---2-0------------------------------------|
D|------------------2-----2-0------2-----2-0----2-0---0---------------------|
A|--------------------------------------------------2-----------------------|
E|--------------------------------------------------------------------------|
                                                Slowly

Repeat as necessary.
Suggest correction
comments
print report bad tab
12 comments total. Showing first comments.
0 reply
Da7n 30 Feb 19, 2005 07:00 PM

This is my first time posting to a guitar tab site - so I'll keep it humble. Consider my version of the intro (I'm pretty sure it's right)...

Song Title: Do you feel like I do
From Album: Frampton comes Alive
Transcribed By: Da7n
Contact Email:
Tuning (if not standard):
Capo: no
Notes on how to play it: I tabbed this high up on the neck.
Obviously it can be played in any position on the neck. Listen to
the record to get the timing and feeling.
TAB:

e |------10---------------------------------------------------------|
b |-13-10--13-10----------------------------------------------------|
g |-------------12~-10-13p12-10-------10--13p12-10------------------|
d |-------------------12-------12-10~---12-------12-10~----12-10--10|
a |-------------------------------------------------------------12--|
E |-----------------------------------------------------------------|


e |------10---------------------------------------------------------|
b |-13-10--12-10----------------------------------------------------|
g |-------------12~--10--12-10--------10--12-10---------------------|
d |--------------------12-----12-10~----12-----12-10~---12~12~12~12~|
a |-----------------------------------------------------------------|
E |-----------------------------------------------------------------|

On the record, the first measure is played low on the neck with some open strings in D. The second measure harmonizes with the organ. What I've got here is closest to the 3rd and 4th measures, minus the frilly stuff. The 5th and 6th measures change key to (F), but the idea is the same. Then rock out to the verse.

It'd be nice to see someone do the whole song...

| / slide up
| \ slide down
| h hammer-on
| p pull-off
| ~ vibrato
| + harmonic
| x Mute note

0 reply
yucrying 50 Mar 29, 2005 07:00 PM

This tab is good, but except at the end it goes

---2-0--- instead of ---2-0-0
------2-0 ------2-

0 reply
yucrying 50 Mar 29, 2005 07:00 PM

This tab is good, but except at the end it goes

---2-0--- instead of ---2-0-0
------2-0

guest
You may want to rate the tab now too:
select rating
Wanna post a correction for this tab? Suggest correction