Oops, an error
Loading. Please wait.

Do You Feel Like We Do bass

version 2
version 2

Whole song

Interactive

424 views 3 this week
no commentswrite comment
1 2 3 4 5
2 more votes to show rating
add to favorites
×
Save as Personal and add changes to this tab that will be seen only by you. Learn more ›
×
You can save this tab as Personal to edit and correct it or add notes. All changes will be seen only by you. Learn more »
launch autoscroll
font size
0
reset
guitar tuner
backing track
0:00
0:00
edit
Autoscroll
slow
fast
+/-
esc
set tempo
stop
Author
----------------------------------------------------------------------
               Do You Feel Like We Do - Peter Frampton
----------------------------------------------------------------------
Tabbed by: RagnaarMN

Tuning:  Standard
Key of F Major

Intro:   (Come in with the drums)
G|----------------|----------------|----------------|----------------|
D|0-----------0---|3---------------|----------------|0---------------|
A|----------------|----------------|3-----------3---|--------0---3---|
E|----------------|----------------|----------------|----------------|

Verse:
G|----------------|----------------|----------------|----------------|
D|----------------|----------------|----------------|----------------|
A|0-0-----0-0-----|----------------|0-0-----0-0-----|0-0-----0-0-----|
E|----------------|0-0-----0-0-3-3-|----------------|------------3-3-|

Chorus:    
G|----------------|----------------|----------------|----------------|
D|0-------0-------|3---------------|----------------|0---------------|
A|----------------|----------------|--------0---3---|--------0---3---|
E|----------------|----------------|3---------------|----------------|
  Do      you      you              feel    like I   do

Verse:
G|----------------|----------------|----------------|----------------|
D|----------------|----------------|----------------|----------------|
A|0-0-----0-0-----|----------------|0-0-----0-0-----|0-0-----0-0-----|
E|----------------|0-0-----0-0-3-3-|----------------|------------3-3-|

Chorus:    
G|----------------|----------------|----------------|----------------|
D|0-------0-------|3---------------|----------------|0---------------|
A|----------------|----------------|--------0---3---|--------0---3---|
E|----------------|----------------|3---------------|----------------|
  Do      you      you              feel    like I   do

Solo:
G|----------------|----------------|----------------|----------------|
D|0-----0-0---0---|3-----3-3---3---|----------------|0---------0-----|
A|----------------|----------------|3-----3-3---3---|------------0-3-|
E|----------------|----------------|----------------|----------------|
                                    Frampton descends to lower notes                              
Outro:                                                 Go to Outro
G|----------------|----------------|
D|----------------|----------------|
A|----------------|0---0---0---0---|            
E|3---3---3---3---|----------------|

Chorus:    
G|----------------|----------------|----------------|----------------|
D|0-------0-------|3---------------|----------------|0---------------|
A|----------------|----------------|--------0---3---|--------0---3---|
E|----------------|----------------|3---------------|----------------|

Verse:
G|----------------|----------------|----------------|----------------|
D|----------------|----------------|----------------|----------------|
A|0-0-----0-0-----|----------------|0-0-----0-0-----|0-0-----0-0-----|
E|----------------|0-0-----0-0-3-3-|----------------|------------3-3-|

Chorus:    
G|----------------|----------------|----------------|----------------|
D|0-------0-------|3---------------|----------------|0---------------|
A|----------------|----------------|--------0---3---|--------0---3---|
E|----------------|----------------|3---------------|----------------|

Solo:
G|----------------|----------------|----------------|----------------|
D|0-----------0---|3---------------|----------------|0---------------|
A|----------------|----------------|3-----------3---|--------0---3---|
E|----------------|----------------|----------------|----------------|

Frampton roars, then:

G|----------------|----------------|----------------|----------------|
D|0-----0-0---0---|3-----3-3---3---|----------------|0---------0-----|
A|----------------|----------------|3-----3-3---3---|------------0-3-|
E|----------------|----------------|----------------|----------------|

Ending:     Slowing                             Hold                
G|----------------|----------------|----------------|----------------|
D|0---------------|3---------------|----------------|0---------------|
A|----------------|----------------|--------0---3---|----------------|
E|----------------|----------------|3---------------|----------------|

  
Version tabbed: Midnight Special 1975
Frampton seems to drop a bar at some transitions.
There is a question of in the chorus and solo, is the 2nd bar note 
really an F?
A lot of the sheet music has the song in F Major. These tabs seem to 
me to have all the notes on the F major scale.
Credit to Cameron K on youtube and johnnyblade
======================================================================

            
            
Suggest correction
Creating personal tab
Creating personal tab
You can edit any tab online and save it as your Personal.

You can edit, replace or remove any tab part or add personal notes – all changes will be seen only by you.

Personal tabs can be accessed anytime from any device, even offline.
Learn more »
Give kudos to tab author, rate the tab!
1 2 3 4 5
comments
print report bad tab
guest
You may want to rate the tab now too:
select rating
Wanna post a correction for this tab? Suggest correction