Oops, an error
Loading. Please wait.

Its A Plain Shame Tab

version 1
version 1

Whole song

Interactive

2,717 views 6 this week
1 commentread comment
1 2 3 4 5
please rate
add to favorites
launch autoscroll
font size
0
reset
how to read this tab
guitar tuner
Autoscroll
slow
fast
+/-
esc
set tempo
stop
Help us to improve Ultimate-Guitar.com Take our survey!
×
Author
-----------------------------------------------------------------------
               It's A Plain Shame - Peter Frampton
-----------------------------------------------------------------------
Tabbed by: TaterSalad101        
Email: FramptonBlackmore12@thevortex.com

Tuning: Standard Tuning

Intro:

e|-------------------------------------------------------------------|
B|-------------------------------------------------------------------|
G|-------------------------------------------------------------------|
D|--5----------------------------------------------------------------|
A|--3--5----5-5-5-5-5-5--7-9-10-9--10-9------------------------------|
E|-----3----2-3-2-3-2-3--5-5-5--5--5--5------------------------------|

Fill:

e|-------------------------------------------------------------------|
B|-------------------------------------------------------------------|
G|------9----------11------------------------------------------------|
D|--/11---11---/11---------/11---------------------------------------|
A|-------------------------------------------------------------------|
E|-------------------------------------------------------------------|

Chorus:
e|-------------------------------------------------------------------|
B|-------------------------------------------------------------------|
G|-------------------------------------------------------------------|
D|--5----------------------------------------------------------------|
A|--3--5----5-5-5-5-5-5--7-9-10-9--10-9------------------------------|
E|-----3----2-3-2-3-2-3--5-5-5--5--5--5------------------------------|


Order:
Intro
Fill
Chorus
Fill
Chorus

Repeat order till' end of song


| /  slide up
| \  slide down
| h  hammer-on
| p  pull-off
| ~  vibrato
| +  harmonic
| x  Mute note
Suggest correction
Give kudos to tab author, rate the tab!
1 2 3 4 5
comments
print report bad tab
1 comment total.
+1 reply
Blindrooster 10 wrote on July 12 2008, 02:54 pm

listen to the song, it should be a slide in the intro like.

e|-------------------------------------------------------------------
B|-------------------------------------------------------------------
G|-------------------------------------------------------------------
D|--5----------------------------------------------------------------
A|--3--5--\-5-5\5-5\5-5--7-9-10-9--10-9------------------------------
E|-----3--\-2-3\2-3\2-3--5-5-5--5--5--5------------------------------

guest
You may want to rate the tab now too:
select rating
Wanna post a correction for this tab? Suggest correction