Oops, an error
Loading. Please wait.

Penny For Your Thoughts Tab

version 1
version 1

Whole song

Interactive

8,310 views 6 this week
no commentswrite comment
1 2 3 4 5
3 more votes to show rating
add to favorites
launch autoscroll
font size
0
reset
how to read this tab
guitar tuner
×
Best way to learn
"Penny For Your Thoughts"
Autoscroll
slow
fast
+/-
esc
set tempo
stop
Tuning
D G D G B D
[Intro]
                                                          (3x)
D|---12p9p0---------------------|------------------------|
B|------------------------------|--0h---1p-0/-3\---1-----|
G|*---------0--0----------------|--0-------0-------0----*|
D|*------------0----------------|--0----2p-0/-4\---2----*|
G|-------------0----------------|--0---------------------|
D|------------------------------|------------------------|

[II] and [III]
D|----------------------------|
B|--0--1--3--5--7--8--10--12--|    
G|--0-------------------------|      
D|--0--2--4--5--7--9--10--12--|
G|--0-------------------------|
D|----------------------------|

[IV]
D|--|----------------------|----------------|
B|--|--0----1----3----5----|--5------5------|
G|--|--0-------------------|-----5------5---|
D|--|--0----2----4----5----|-------5------5-|
G|--|--0-------------------|--5------5------|
D|--|----------------------|----------------|

D|----------------|----------------|----------------|
B|--5------5------|--3------3------|--3------3------|
G|-----5------5---|-----3------3---|-----3------3---|
D|-------5------5-|-------3------3-|-------3------3-|
G|--5------5------|--3------3------|--3------3------|
D|----------------|----------------|----------------|

D|--------------------------|--------------------------|
B|--0------1----1/-3----3-3-|--0------1----1/-3----3-3-|
G|--0-----------0-----------|--0-----------0-----------|
D|--0------2----2/-4----4-4-|--0------2----2/-4----4-4-|
G|--------------------------|--------------------------|
D|--------------------------|--------------------------|

D|----------------|----------------|----------------|----------------|
B|--5------5------|--5------5------|--3------3------|--3------3------|
G|-----5------5---|-----5------5---|-----3------3---|-----3------3---|
D|-------5------5-|-------5------5-|-------3------3-|-------3------3-|
G|--5------5------|--5------5------|--3------3------|--3------3------|
D|----------------|----------------|----------------|----------------|

D|----------------|----------------|----------------|----------------|
B|--7------7------|--7------7------|--5------5------|--3------3------|
G|-----7------7---|-----7------7---|-----5------5---|-----3------3---|
D|-------7------7-|-------7------7-|-------5------5-|-------3------3-|
G|--7------7------|--7------7------|--5------5------|--3------3------|
D|----------------|----------------|----------------|----------------|



************************************

| p  Pull-off
| h  Hammer-on
| /  Slide up
| \  Slide down
| *  Natural harmonic

************************************
Suggest correction
Give kudos to tab author, rate the tab!
1 2 3 4 5
comments
print report bad tab
guest
You may want to rate the tab now too:
select rating
Wanna post a correction for this tab? Suggest correction