Oops, an error
Loading. Please wait.

Penny For Your Thoughts Tab

version 3
version 3

Whole song

Interactive

1,383 views 1 this week
3 commentsread comments
1 2 3 4 5
1 last vote to show rating
add to favorites
launch autoscroll
font size
0
reset
how to read this tab
guitar tuner
×
Best way to learn
"Penny For Your Thoughts"
Autoscroll
slow
fast
+/-
esc
set tempo
stop
Author
Penny For Your Thoughts
Peter Frampton, 1975

Meticulously tabbed at slow speed by VJ and checked against youtube performances by the 
artist. All tabs on the net that I’ve seen are wrong.
Open G tuning. Bottom 4 strings generally played w/ thumb or pick.

THEME:
(repeat 3x  )
d:----12-p-10-p-9-p-0-------0------|----------------0-----------------|
B:------------------0--------------|--0-h-1---------------1------0----|
G:--------------------------0------|----------------------------------|
D:------------------0--------------|-----------0----------------------|
G:----0----------------------------|--0-h-2--------------------(0s)*--|
D:---------------------------------|----------------------------------|
                                                  *0 third time thru.

d:---------------------------------|----------------------------------|
B:---0----------------7+-----------|----12+---------------------------|
G:---0----------------7+-----------|----12+---------------------------|
D:---------------------------------|----------------------------------|
G:---0----------------7+-----------|----12+---------------------------|
D:---------------------------------|----------------------------------|

(THEME)

d:---------------------------------|----------------------------------|
B:---0-----1-------2--------3------|-----5-------7-------8------10----|
G:---------------------------------|----------------------------------|
D:---------------------------------|----------------------------------|
G:---0-----2-------3--------4------|-----5-------7-------9------11----|
D:---------------------------------|----------------------------------|

(THEME)

d:---------------------------------|----------------------------------|
B:---0-----1-------2--------3------|-----5-------4-------3-------2----|
G:---------------------------------|----------------------------------|
D:---------------------------------|----------------------------------|
G:---0-----2-------3--------4------|-----5-------4-------3-------2----|
D:---------------------------------|----------------------------------|

d:---------------------------------|-------0--------------------------|
B:---------------------------------|-------1--------------------------|
G:---------------------------------|-------0--------------------------|
D:---------------------------------|-------0--------------------------|
G:---------------------------------|-------2--------------------------|
D:---------------------------------|-------0--------------------------|
                                           (strum gently)
(THEME)

d:---------------------------------|----------------------------------|
B:---0-------------1---------------|-----2---------------3------------|
G:---------------------------------|----------------------------------|
D:---------------------------------|----------------------------------|
G:---0-------------2---------------|-----3---------------4------------|
D:---------------------------------|----------------------------------|



d:-------------0-------------------|-------------3--------------------|
B:-----5----------------5-------5--|-----5-----------------5----------|
G:---------------------------------|----------------------------------|
D:---------5-----------------------|---------5-----------------5s-----|
G:--5-----------------------5------|--5-------------------------------|
D:---------------------------------|----------------------------------|

d:-------------0-------------------|-------------1--------------------|
B:-----3----------------3----------|-----3-----------------3-------3--|
G:------------------------------0--|----------------------------------|
D:---------3-----------------------|---------3-----------------3------|
G:--3-----------------------3------|--3-------------------------------|
D:---------------------------------|----------------------------------|

                                                                play 2x
d:---------------------------------|----------------------------------|
B:-------0------------1------------|--1s3------------3-----3----------|
G:---------------------------------|----------------------------------|
D:---------------------------------|------------0---------------------|
G:--0----0------------2------------|--2s4-----------------------4-----|
D:---------------------------------|----------------------------------|


d:-------------0-------------------|-------------3--------------------|
B:-----5----------------5-------5--|-----5-----------------5----------|
G:---------------------------------|----------------------------------|
D:---------5-----------------------|---------5-----------------5s-----|
G:--5-----------------------5------|--5-------------------------------|
D:---------------------------------|----------------------------------|

d:-------------0-------------------|-------------1--------------------|
B:-----3----------------3----------|-----3-----------------3----------|
G:------------------------------0--|----------------------------------|
D:---------3-----------------------|---------3-----------------3s-----|
G:--3-----------------------3------|--3-------------------------------|
D:---------------------------------|----------------------------------|

d:-------------0-------------------|-------------5--------------------|
B:-----7----------------7-------7--|-----7-----------------7----------|
G:---------------------------------|----------------------------------|
D:---------7-----------------------|---------7-----------------7s-----|
G:--7-----------------------7------|--7-------------------------------|
D:---------------------------------|----------------------------------|

d:-------------0-------------------|-------------0--------------------|
B:-----5----------------5----------|-----3-----------------3----------|
G:---------------------------------|----------------------------------|
D:---------5-----------------------|---------3-----------------3------|
G:--5-----------------------5s-----|--3-------------------------------|
D:---------------------------------|----------------------------------|

(THEME)

d:---------------------------------|----------------------------------|
B:---0-----1-------2--------3------|-----5-------7-------8------10----|
G:---------------------------------|----------------------------------|
D:---------------------------------|----------------------------------|
G:---0-----2-------3--------4------|-----5-------7-------9------11----|
D:---------------------------------|----------------------------------|

(THEME)

d:---------------------------------|----------------------------------|
B:---0----------------7+-----------|----12+---------------------------|
G:---0----------------7+-----------|----12+---------------------------|
D:---------------------------------|----------------------------------|
G:---0----------------7+-----------|----12+---------------------------|
D:---------------------------------|----------------------------------|
Suggest correction
Give kudos to tab author, rate the tab!
1 2 3 4 5
comments
print report bad tab
3 comments total.
0 reply
neonama1 30 Feb 09, 2013 02:53 PM

This is the tab I submitted last week. (neonama1@yahoo.com) I noticed I left in a mistake. The first line should read thus:

d:----12-p-10-p-9-p-0-------0------|----------------0-----------------|
B:------------------0--------------|--0-h-1---------------1------0----|
G:--------------------------0------|----------------------------------|
D:------------------0--------------|-----------0----------------------|
G:----0----------------------------|--0-h-2--------------------(0s)*--|
D:---------------------------------|----------------------------------|
*0 third time thru.
Please change it!

0 reply
neonama1 30 Feb 09, 2013 02:53 PM

This is the tab I submitted last week. (neonama1@yahoo.com) I noticed I left in a mistake. The first line should read thus:

d:----12-p-10-p-9-p-0-------0------|----------------0-----------------|
B:------------------0--------------|--0-h-1---------------1------0----|
G:--------------------------0------|----------------------------------|
D:------------------0--------------|-----------0----------------------|
G:----0----------------------------|--0-h-2--------------------(0s)*--|
D:---------------------------------|----------------------------------|
*0 third time thru.
Please change it!

guest
You may want to rate the tab now too:
select rating
Wanna post a correction for this tab? Suggest correction