Oops, an error
Loading. Please wait.

Show Me The Way Bass

version 1
version 1

Whole song

Interactive

10,401 views 24 this week
no commentswrite comment
1 2 3 4 5
x 6
add to favorites
×
Save as Personal and add changes to this tab that will be seen only by you. Learn more ›
×
You can save this tab as Personal to edit and correct it or add notes. All changes will be seen only by you. Learn more »
save as personal
new!
launch autoscroll
font size
0
reset
guitar tuner
backing track
0:00
0:00
Autoscroll
slow
fast
+/-
esc
set tempo
stop
Author
-------------------------------------------------------------------------------
			     Show Me The Way - Peter Frampton
-------------------------------------------------------------------------------
Tabbed by: Beckett W.
Email: beckett360@yahoo.com

Tuning: Standard E


Intro
G|------------------------------------7---------4----------------|
D|----------------------------7---------7---------4--------------|
A|-5----4----2----1-1-3-3--5---5-5-5-5------2--2------1--1-1-3-3-|
E|---------------------------------------------------------------|

Verse
G|-------------------------------7-----------------4------------------------|
D|------7-------7-------7---------7------4----------4----------3-3----------|
A|-5--5---5-5-5----5-5-5----5-5-5-----2--2----2-2-2------1--1-----1--11-3-3-|
E|--------------------------------------------------------------------------|
  
Before the chorus
G|--------------------------------------|
D|------7---------7---------5-----------|
A|--------7---------7---------5---------|
E|-5--5------5--5------3--3-----3-2-0-5-|

Chorus                                                    
G|-------------------------------------------------|
D|-------------------------------------------------|
A|-------------------------------------------------|
E|--7-7-7--0-5-6-7~--7-5-5-3-3-3--0-3-0---3-2-0-5--|

Outro
G|-----------------------------------------|
D|-------7--------7------4-----------------|
A|-5--5----5-5-5---2-2-2---1-1-1--3-3-3--5-|
E|-----------------------------------------|
Suggest correction
comments
print report bad tab
guest
You may want to rate the tab now too:
select rating
Wanna post a correction for this tab? Suggest correction