Oops, an error
Loading. Please wait.

Show Me The Way Tab

version 1
version 1

Live

Whole song

Interactive

4,718 views 6 this week
1 commentread comment
1 2 3 4 5
please rate
add to favorites
launch autoscroll
font size
0
reset
how to read this tab
guitar tuner
Tab Pro tools
  • play this tab
  • loop segment
  • change instrument
  • show fretboard
  • metronome
×
Best way to learn
"Show Me The Way"
Autoscroll
slow
fast
+/-
esc
set tempo
stop
Contributor
Difficulty
intermediate
-------------------------------------------------------------------------------
                  Show Me The Way - Peter Frapmton
-------------------------------------------------------------------------------
Tabbed by: Beckett W.
Email: beckett360@yahoo.com

Tuning: Standard

e|----------------------------------------------|
B|---7-7-7-7--7-7-7-7--3-3-3-3------------------|
G|---7-7-7-7--7-7-7-7--4-4-4-4---3-3---5-5------| 
D|---7-7-7-7--7-7-7-7--4-4-4-4---3-3---5-5------| x2
A|---5-5-5-5--4-4-4-4--2-2-2-2---1-1---3-3------|
E|----------------------------------------------|

First Solo with Talkbox
e|---------------------------------------------------------------|
B|-------------------------10------------------------------------|
G|--------6-7----7-9b-9-7~----7-------------6-7----7-9b-9-7~-7~--|
D|-7~-7-9-----9~----------------9-7~----7-9-----9~---------------|
A|---------------------------------------------------------------|
E|---------------------------------------------------------------|

Verse chords (repeat these chords for every verse)

I wonder how you're feeling, there's ringing in my ears
e|-2-2-2-2--2-2-2-2--2-2-2-2--2-2-2-2-|
B|-3-3-3-3--3-3-3-3--3-3-3-3--3-3-3-3-|
G|-2-2-2-2--2-2-2-2--2-2-2-2--2-2-2-2-| D chord
D|-0-0-0-0--0-0-0-0--0-0-0-0--0-0-0-0-|
A|------------------------------------|
E|------------------------------------|

And no one to relate to
e|-2-2-2-2--2-2-2-2--2-2-2-2--2-2-2-2-|
B|-3-3-3-3--3-3-3-3--3-3-3-3--3-3-3-3-|
G|-4-4-4-4--4-4-4-4--4-4-4-4--4-4-4-4-| B minor chord
D|-4-4-4-4--4-4-4-4--4-4-4-4--4-4-4-4-|
A|------------------------------------|
E|------------------------------------|

except the sea
e|-1-1-1-1--1-1-1-1--1-1-1-1--1-1-1-1-|
B|-3-3-3-3--3-3-3-3--3-3-3-3--3-3-3-3-|
G|-3-3-3-3--3-3-3-3--3-3-3-3--3-3-3-3-| B flat chord
D|-3-3-3-3--3-3-3-3--3-3-3-3--3-3-3-3-|
A|------------------------------------|
E|------------------------------------|

Who can I believe in? I'm kneeling on the floor
e|-2-2-2-2--2-2-2-2--2-2-2-2--2-2-2-2-|
B|-3-3-3-3--3-3-3-3--3-3-3-3--3-3-3-3-|
G|-2-2-2-2--2-2-2-2--2-2-2-2--2-2-2-2-| D chord
D|-0-0-0-0--0-0-0-0--0-0-0-0--0-0-0-0-|
A|------------------------------------|
E|------------------------------------|

There has to be a force
e|-2-2-2-2--2-2-2-2--2-2-2-2--2-2-2-2-|
B|-3-3-3-3--3-3-3-3--3-3-3-3--3-3-3-3-|
G|-4-4-4-4--4-4-4-4--4-4-4-4--4-4-4-4-| B minor chord
D|-4-4-4-4--4-4-4-4--4-4-4-4--4-4-4-4-|
A|------------------------------------|
E|------------------------------------|

Who do I call?
e|-1-1-1-1--1-1-1-1--1-1-1-1--1-1-1-1-|
B|-3-3-3-3--3-3-3-3--3-3-3-3--3-3-3-3-|
G|-3-3-3-3--3-3-3-3--3-3-3-3--3-3-3-3-| B flat chord
D|-3-3-3-3--3-3-3-3--3-3-3-3--3-3-3-3-|
A|------------------------------------|
E|------------------------------------|

The stars are out and shining
e|-0-0-0-0--0-0-0-0--0-0-0-0--0-0-0-0-|
B|-3-3-3-3--3-3-3-3--3-3-3-3--3-3-3-3-|
G|-0-0-0-0--0-0-0-0--0-0-0-0--0-0-0-0-|
D|-0-0-0-0--0-0-0-0--0-0-0-0--0-0-0-0-|
A|-0-0-0-0--0-0-0-0--0-0-0-0--0-0-0-0-|
E|------------------------------------|

But all I really want to know
e|-1-1-1-1--1-1-1-1--1-1-1-1--1-1-1-1-|
B|-0-0-0-0--0-0-0-0--0-0-0-0--0-0-0-0-|
G|-0-0-0-0--0-0-0-0--0-0-0-0--0-0-0-0-| G7 chord
D|-0-0-0-0--0-0-0-0--0-0-0-0--0-0-0-0-|
A|-2-2-2-2--2-2-2-2--2-2-2-2--2-2-2-2-|
E|-3-3-3-3--3-3-3-3--3-3-3-3--3-3-3-3-|

Chorus

Oh won't you 
e|-2-2-2-2--2-2-2-2--2-2-2-2--2-2-2-2-|
B|-3-3-3-3--3-3-3-3--3-3-3-3--3-3-3-3-|
G|-4-4-4-4--4-4-4-4--4-4-4-4--4-4-4-4-| B minor chord
D|-4-4-4-4--4-4-4-4--4-4-4-4--4-4-4-4-|
A|------------------------------------|
E|------------------------------------|

show me the way?
e|-3-3-3-3--3-3-3-3--3-3-3-3--3-3-3-3-|
B|-0-0-0-0--0-0-0-0--0-0-0-0--0-0-0-0-|
G|-0-0-0-0--0-0-0-0--0-0-0-0--0-0-0-0-|
D|-0-0-0-0--0-0-0-0--0-0-0-0--0-0-0-0-| G chord
A|-2-2-2-2--2-2-2-2--2-2-2-2--2-2-2-2-|
E|-3-3-3-3--3-3-3-3--3-3-3-3--3-3-3-3-|

I want you
e|-2-2-2-2--2-2-2-2--2-2-2-2--2-2-2-2-|
B|-3-3-3-3--3-3-3-3--3-3-3-3--3-3-3-3-|
G|-4-4-4-4--4-4-4-4--4-4-4-4--4-4-4-4-| B minor chord
D|-4-4-4-4--4-4-4-4--4-4-4-4--4-4-4-4-|
A|------------------------------------|
E|------------------------------------|

to show me the way
e|-3-3-3-3--3-3-3-3--3-3-3-3--3-3-3-3-|
B|-0-0-0-0--0-0-0-0--0-0-0-0--0-0-0-0-|
G|-0-0-0-0--0-0-0-0--0-0-0-0--0-0-0-0-|
D|-0-0-0-0--0-0-0-0--0-0-0-0--0-0-0-0-| G chord
A|-2-2-2-2--2-2-2-2--2-2-2-2--2-2-2-2-|
E|-3-3-3-3--3-3-3-3--3-3-3-3--3-3-3-3-|

e|-0-0-0-0-|
B|-3-3-3-3-|
G|-0-0-0-0-|
D|-0-0-0-0-|
A|-0-0-0-0-|
E|---------|

Second solo with talkbox
e|-----------------------------------------------------------|
B|--------------7-10-8-10-7--------------------7--9-7~-7~-7~-|
G|-------6-7-9--------------9-7~-9-9r9-9-9-7-9---------------|
D|-7-9-------------------------------------------------------|
A|-----------------------------------------------------------|
E|-----------------------------------------------------------|

Third solo with talkbox

e|---------------------------10-7------------------------------------|
B|------------7-10-8-10~-8-7------10-7-10-7--------------------------|
G|-----6-7~-9-------------------------------9-7-9r-9-9-7-9h7---7-9~--|
D|-7-9-------------------------------------------------------9-------|
A|-------------------------------------------------------------------|
E|-------------------------------------------------------------------|

|---------------------------------------------------------7-7--------|
|-------7-10-8-7-----------------------10--------------10-----10-10~-|
|-9-7-9----------9r9-7h9---7-9h-9b-9-7----7---7-9b-9-7---------------|
|------------------------9------------------9------------------------|
|--------------------------------------------------------------------|
|--------------------------------------------------------------------|

|-----10~-10-9-7-9-7-9-7~-------------10-----------------------------|
|-8-7---------------------10-7-10-8-7----8-7-------------------------|
|--------------------------------------------9-7-9b9-7-9-7---7-9-7-9-|
|----------------------------------------------------------9---------|
|--------------------------------------------------------------------|
|--------------------------------------------------------------------|

|--------------------------------------------------------------------|
|--------------------------------------------------------------------|
|-9b9-7-9-7-----------------------7-9b-9-7-9b-9-7-9b-9-7-9b-9-7-7~---|
|-----------9-7---------------7-9------------------------------------|
|---------------9-8-7-5---5-9----------------------------------------|
|-----------------------7--------------------------------------------|
comments
We did not receive enough feedback on this tab! Please rate:
print report bad tab
1 2 3 4 5
1 comment total.
0 reply
chaotic donut wrote on August 31 2009, 07:03 pm

great tab. it was cool that you tabbed out the chords

I want to post or [tab]
guest
You may want to rate the tab now too:
select rating
Please do not post tabs as comments. Select "correction" instead!