Oops, an error
Loading. Please wait.

Show Me The Way bass

version 2
version 2

Whole song

Interactive

2,237 views 1 this week
1 commentread comment
1 2 3 4 5
x 3
add to favorites
×
Save as Personal and add changes to this tab that will be seen only by you. Learn more ›
×
You can save this tab as Personal to edit and correct it or add notes. All changes will be seen only by you. Learn more »
launch autoscroll
font size
0
reset
guitar tuner
backing track
0:00
0:00
edit
Autoscroll
slow
fast
+/-
esc
set tempo
stop
Author
Difficulty
Show me the way - Peter Frampton
Tabbed by Bruno Frenchy (brsosson@live.fr)

Tuning : EADG
Tempo : 132 bpm


Intro (00:11)
G|-----------|-----------|-----------|-7----------4-|----------|-
D|-----------|-----------|-----7--7--|---7------4---|----------|-
A|-5---4---2-|-1--1-3-3--|-5--5----5-|-----2--2-----|-1--1/333-|-
E|-----------|-----------|-----------|--------------|----------|-

G|-----------|-7----------4--|----------|-
D|------7-7--|---7------4----|----------|-
A|-5--5----5-|-----2--2------|-1--1/333-|-
E|-----------|---------------|----------|-


Verse1 (00:32) 
G|-----------|---------|---------|---------|--------|-4-----|--------|-------|-
D|-----7--7--|---7-7---|---7-7---|-7-------|---4----|---4---|---3----|-------|-
A|-5--5----5-|-5-----5-|-5-----5-|---5--2~-|-2---2--|-----1-|-1---1--|-1/333-|-
E|-----------|---------|---------|---------|--------|-------|--------|-------|-
  I Wonder how you’re feeling
  There’s ringing in my ears
  And no one to relate to‘cept the sea  
G|-----------|---------|---------|---------|--------|-4-----|--------|-------|-
D|-----7--7--|---7-7---|---7-7---|-7-------|---4----|---4---|---3----|-------|-
A|-5--5----5-|-5-----5-|-5-----5-|---5--2~-|-2---2--|-----1-|-1---1--|-1/333-|-
E|-----------|---------|---------|---------|--------|-------|--------|-------|-
  Who can I believe in?
  I’m kneeling on the floor
  There has to be a force
  Who do I phone?


Bridge (01:01)
G|--------|--------|--------|------------|-
D|----7-7-|----7-7-|--------|------------|-
A|--------|--------|----5-5-|----5-5-----|-
G|-5-5----|-5-5----|-3-3----|-3-3-----3/-|-
  The stars are out and shinning
  But all I really wanna know...


Chorus (01:08)                                                  
G|---------------|---------|-------------|---------------|------------|-
D|---------------|---------|-----5-4-----|---------------|---------5~-|-
A|---------------|-9-7-9-5-|---------7-5-|---------------|-9-7-9-5----|-
E|-7--5--3--5--7-|---------|-5-7~--------|-7--5--3--5--7-|------------|-
  Oh, won’t you
  Show me the way
  Everyday
  I want you
  To show me the way
  Yeah...


Instrumental interlude (01:24)
G|---------|-7-------|-----4--|-------|-
D|---7-7---|----7----|---4----|-------|-
A|-5-----5-|------2~-|-2------|-1/333-|-
E|---------|---------|--------|-------|-


Verse2  (01:30)                                                                
G|-----------|---------|---------|---------|--------|-4-----|--------|-------|-
D|-----7--7--|---7-7---|---7-7---|-7-------|---4----|---4---|---3----|-------|-
A|-5--5----5-|-5-----5-|-5-----5-|---5--2~-|-2---2--|-----1-|-1---1--|-1/333-|-
E|-----------|---------|---------|---------|--------|-------|--------|-------|-
  I can see no reason 
  You living on your nerves
  When someone drops a cup 
  And I submerge
G|-----------|---------|---------|---------|--------|-4-----|--------|-------|-
D|-----7--7--|---7-7---|---7-7---|-7-------|---4----|---4---|---3----|-------|-
A|-5--5----5-|-5-----5-|-5-----5-|---5--2~-|-2---2--|-----1-|-1---1--|-1/333-|-
E|-----------|---------|---------|---------|--------|-------|--------|-------|-
  I’m swimming in a circle
  I feel I’m going down
  There has to be a fool
  To play my part


Bridge (01:59)
G|--------|--------|--------|------------|-
D|----7-7-|----7-7-|--------|------------|-
A|--------|--------|----5-5-|----5-5-----|-
G|-5-5----|-5-5----|-3-3----|-3-3-----3/-|-
   But someone thought of healing
   But all I really wanna know



Chorus (02:06)
G|---------------|---------|-------------||---------------|---------|-------------|-
D|---------------|---------|-----5-4-----||---------------|---------|-----5-4-----|-
A|---------------|-9-7-9-5-|---------7-5-||---------------|-9-7-9-5-|---------7-5-|-
E|-7--5--3--5--7-|---------|-5-7~--------||-7--5--3--5--7-|---------|5-7~---------|-                                                
   Oh, won't you
   Show me the way
   Everyday
   I want you
   To show me the way
    
G|---------------|-------------|-----|-
D|---------------|-------5-----|-----|-
A|---------------|-9-7-5---5---|-----|-
E|-7--5--3--5--7-|-----------3-|-3-5-|-
    Oooh... I want you 
    Day after day
    Yeah...           


Guitar Solo (Rythmic Guitar) (02:29)
G|-----------|---------|---------|---------|--------|-4-----|--------|-------|-
D|-----7--7--|---7-7---|---7-7---|-7-------|---4----|---4---|---3----|-------|-
A|-5--5----5-|-5-----5-|-5-----5-|---5--2~-|-2---2--|-----1-|-1---1--|-1/333-|- x2
E|-----------|---------|---------|---------|--------|-------|--------|-------|-


Verse3 X1 (02:57)
G|-----------|---------|---------|---------|--------|-4-----|--------|-------|-
D|-----7--7--|---7-7---|---7-7---|-7-------|---4----|---4---|---3----|-------|-
A|-5--5----5-|-5-----5-|-5-----5-|---5--2~-|-2---2--|-----1-|-1---1--|-1/333-|-
E|-----------|---------|---------|---------|--------|-------|--------|-------|-
  I wonder if I’m dreaming 
   I feel so unashamed
   I can’t believe this is happening
   To me...

Bridge (03:12)
G|--------|--------|--------|------------|-
D|----7-7-|----7-7-|--------|------------|-
A|--------|--------|----5-5-|----5-5-----|-
G|-5-5----|-5-5----|-3-3----|-3-3-----3/-|-
I watch you when you’re sleeping
Oh then I wanna take your love



Final Chorus (Part 1) x4 (03:19)                               
G|---------------|---------|-------------||---------------|---------|-------------|-
D|---------------|---------|-----5-4-----||---------------|---------|-----5-4-----|-
A|---------------|-9-7-9-5-|---------7-5-||---------------|-9-7-9-5-|---------7-5-|-
E|-7--5--3--5--7-|---------|-5-7~--------||-7--5--3--5--7-|---------|5-7~---------|-                                                
(1) Oh, won’t you               
    Show me the way      
    Everyday    
(2) I want you                       
    To show me the way     
    One more time   
G|---------------|-------------------||---------------|-------------------|-
D|---------------|-------5-----------||---------------|-------5-----------|-
A|---------------|-9-7-5---5---------||---------------|-9-7-5---5---------|-
E|-7--5--3--5--7-|-----------3--3-5--||-7--5--3--5--7-|-----------3--3-5--|-
(3) I want you                 
    Day after day    
    Yeah...     
(4) I want you                  
    Day after day      
    Yeah...
                                                               
Interlude: (03:48)
G|---------|-7-------|-----4--|-------|-
D|---7-7---|----7----|---4----|-------|-
A|-5-----5-|------2~-|-2------|-1~~---|-
E|---------|---------|--------|-------|-


Final Chorus: (03:55) (Part 2) x3                                          
G|---------------|---------|-------------|---------------|------------|-
D|---------------|---------|-----5-4-----|---------------|---------5~-|-
A|---------------|-9-7-9-5-|---------7-5-|---------------|-9-7-9-5----|-
E|-7--5--3--5--7-|---------|-5-7~--------|-7--5--3--5--7-|------------|-

G|---------------|-------------|-----|-
D|---------------|-------5-----|-----|-
A|---------------|-9-7-5---5---|-----|-
E|-7--5--3--5--7-|-----------3-|-3-5-|-

(5)  Oh, won’t you                
     Show me the way      
     Everyday   
(6)  I want you                        
     To show me the way    
     Night and day      
(7)  I want you                  
     Day after day                
     Yeah...Oooh...      


Outro (04:18)
G|---------|-7-------|-----4--||------------|-
D|---7-7---|----7----|---4----||------------|-
A|-5-----5-|------2~-|-2------||-1-1-333-5~-|-
E|---------|---------|--------||------------|-

                                                                   
End... (04:30)


Index

| /   slide up
| \   slide down
| h   hammer-on
| g   Gost note
| p   pull-off
| ~   vibrato
| +   harmonic
| x   Mute note
| b   Bend

            
            
Suggest correction
Creating personal tab
Creating personal tab
You can edit any tab online and save it as your Personal.

You can edit, replace or remove any tab part or add personal notes – all changes will be seen only by you.

Personal tabs can be accessed anytime from any device, even offline.
Learn more »
Give kudos to tab author, rate the tab!
1 2 3 4 5
comments
print report bad tab
1 comment total.
0 reply
hertogjan 62 Apr 07, 2015 10:07 AM

Super TAB fits Framton comes alive perfectly thanks

guest
You may want to rate the tab now too:
select rating
Wanna post a correction for this tab? Suggest correction