Oops, an error
Loading. Please wait.

Show Me The Way tab

version 4
version 4

Whole song

Interactive

244 views 9 this week
no commentswrite comment
1 2 3 4 5
3 more votes to show rating
add to favorites
×
Save as Personal and add changes to this tab that will be seen only by you. Learn more ›
×
You can save this tab as Personal to edit and correct it or add notes. All changes will be seen only by you. Learn more »
launch autoscroll
font size
0
reset
how to read this tab
guitar tuner
backing track
0:00
0:00
edit
Autoscroll
slow
fast
+/-
esc
set tempo
stop
About this tab version
This is an open tuning acoustic version of Show me the way. Real easy beautiful chords. Was this info helpful? Yes No
Open G Tuning (chords sounds amazing)

[Intro]
D|-0-------0---0-------0---0---0---|-0-------0---0-------0---0---0---|
B|-7-------7---7-------7---7---7---|-6-------6---6-------6---6---6---|
G|-7-------7---7-------7---7---7---|-7-------7---7-------7---7---7---|
D|-0-------0---0-------0---0---0---|-0-------0---0-------0---0---0---|
G|-7-------7---7-------7---7---7---|-7-------7---7-------7---7---7---|
D|-0-------0---0-------0---0---0---|-0-------0---0-------0---0---0---|  
 
   1   &   2   &   3   &   4   &     1   &   2   &   3   &   4   &

D|-0-------0---0-------0---0---0---|-x---0---0---0---x---0---0---0---|
B|-3-------3---3-------3---3---3---|-x---x---x---x---x---x---x---x---|
G|-4-------4---4-------4---4---4---|-x---3---3---3---x---5---5---5---|  (x2)
D|-4-------4---4-------4---4---4---|-x---3---3---3---x---5---5---5---|
G|-4-------4---4-------4---4---4---|-x---3---3---3---x---5---5---5---|
D|---------------------------------|---------------------------------|

[Verse]
D|-0-------0---0-------0---0---0---|-0-------0---0-------0---0---0---|
B|-7-------7---7-------7---7---7---|-7-------7---7-------7---7---7---|
G|-7-------7---7-------7---7---7---|-7-------7---7-------7---7---7---|
D|-0-------0---0-------0---0---0---|-0-------0---0-------0---0---0---|
G|-7-------7---7-------7---7---7---|-7-------7---7-------7---7---7---|
D|-0-------0---0-------0---0---0---|-0-------0---0-------0---0---0---|

D|-0-------0---0-------0---0---0---|-0-------0---0-------0---0---0---|
B|-6-------6---6-------6---6---6---|-6-------6---6-------6---6---6---|
G|-7-------7---7-------7---7---7---|-7-------7---7-------7---7---7---|
D|-0-------0---0-------0---0---0---|-0-------0---0-------0---0---0---|
G|-7-------7---7-------7---7---7---|-7-------7---7-------7---7---7---|
D|-0-------0---0-------0---0---0---|-0-------0---0-------0---0---0---|

D|-0-------0---0-------0---0---0---|-0-------0---0-------0---0---0---|
B|-3-------3---3-------3---3---3---|-3-------3---3-------3---3---3---|
G|-4-------4---4-------4---4---4---|-4-------4---4-------4---4---4---|
D|-4-------4---4-------4---4---4---|-4-------4---4-------4---4---4---|
G|-4-------4---4-------4---4---4---|-4-------4---4-------4---4---4---|
D|---------------------------------|---------------------------------|

D|-0-------0---0-------0---0---0---|-x---0---0---0---x---0---0---0---|
B|-x-------x---x-------x---x---x---|-x---x---x---x---x---x---x---x---|
G|-3-------3---3-------3---3---3---|-x---3---3---3---x---5---5---5---|
D|-3-------3---3-------3---3---3---|-x---3---3---3---x---5---5---5---|  (x2)
G|-3-------3---3-------3---3---3---|-x---3---3---3---x---5---5---5---|
D|---------------------------------|---------------------------------|

[Pre-Chorus]
D|-2-------2---2-------2---2---2---|-2-------2---2-------2---2---2---|
B|-0-------0---0-------0---0---0---|-0-------0---0-------0---0---0---|
G|-2-------2---2-------2---2---2---|-2-------2---2-------2---2---2---|
D|-2-------2---2-------2---2---2---|-2-------2---2-------2---2---2---|
G|-0-------0---0-------0---0---0---|-0-------0---0-------0---0---0---|
D|---------------------------------|---------------------------------|

D|-0-------0---0-------0---0---0---|-0-------0---0-------0---0---0---|
B|-0-------0---0-------0---0---0---|-0-------0---0-------0---0---0---|
G|-0-------0---0-------0---0---0---|-0-------0---0-------0---0---0---|
D|-0-------0---0-------0---0---0---|-0-------0---0-------0---0---0---|
G|-0-------0---0-------0---0---0---|-0-------0---0-------0---0---0---|
D|---------------------------------|---------------------------------|

[Chorus]
D|-0--2--X-0-------0---0---0---0---|-0--2--X-0-------0---0---0---0---|---0---|
B|-0--0--X-3-------3---3---3---3---|-3--0--X-0-------0---0---0---0---|---0---|
G|-0--2--X-4-------4---4---4---4---|-4--2--X-0-------0---0---0---0---|---0---|  (x2) 
D|-0--2--X-4-------4---4---4---4---|-4--2--X-0-------0---0---0---0---|---0---|
G|-0--0--X-4-------4---4---4---4---|-4--0--X-0-------0---0---0---0---|---2---|
D|-------X-------------------------|-------X-------------------------|-------|
  
I wonder how you're feeling 
There's ringing in my ears
And no one to relate to except the sea
Who can I believe in? 
I'm kneeling on the floor
There has to be a force 
Who do I phone?
The stars are out and shining 
But all I really want to know

Oh won't you show me the way
I want you show me the way

Well, I can see no reason, 
You living on your nerves
When someone drops a cup and I submerge
I'm swimming in a circle, 
I feel I'm going down
There has to be a fool 
To play my part
Someone thought of healing, 
But all I really want to know

Oh won't you show me the way
I want you show me the way
I want you day after day

I wonder if I'm dreaming 
I feel so unashamed
I can't believe this is happening to me
I watch you when you're sleeping
And then I want to take your love

Oh won't you show me the way
Oh won't you show me the way
I want you day after day
I want you day after day
Oh won't you show me the way
I want you day after day


************************************

| x  Dead note

************************************

            
            
Suggest correction
Creating personal tab
Creating personal tab
You can edit any tab online and save it as your Personal.

You can edit, replace or remove any tab part or add personal notes – all changes will be seen only by you.

Personal tabs can be accessed anytime from any device, even offline.
Learn more »
Give kudos to tab author, rate the tab!
1 2 3 4 5
comments
print report bad tab
guest
You may want to rate the tab now too:
select rating
Wanna post a correction for this tab? Suggest correction