Oops, an error
Loading. Please wait.

Book Of Love Tab

version 1
version 1

Whole song

15,961 views 45 this week
1 commentread comment
1 2 3 4 5
x 9
add to favorites
launch autoscroll
font size
0
reset
how to read this tab
guitar tuner
Autoscroll
slow
fast
+/-
esc
set tempo
stop
Help us to improve Ultimate-Guitar.com Take our survey!
×
Author
Capo
1st fret
-------------------------------------------------------------------------------
                             BOOK OF LOVE - Peter Gabriel
-------------------------------------------------------------------------------
Tabbed by: Nick

Tuning:capo on 1st fret


e|--------------------------------------|
B|-3-----1-0-3---3-3---3-----1-0-3------|
G|---0-------2-0-2-------0-------2-0-0--|
D|-----0-------------------0-------0-0--|
A|--------------------------------------|
E|-3-----0---2-----3---3-----0---2------|


pretty simple, play the whole way through the song.
basically it is just G,C,D plus a few bass notes but plucking specific strings rather 
strumming the whole chord
Suggest correction
comments
print report bad tab
1 comment total.
0 reply
GuitarWalker57 167 Apr 04, 2011 01:32 PM

There is one tiny change that I think should be made:
(I hope the format is posted properly)

e|--------------------------------------|
B|-3-----1-0-3---3-0---3-----1-0-3------|
G|---0-------2-0-2-------0-------2-0-0--|
D|-----0-------------------0-------0-0--|
A|--------------------------------------|
E|-3-----0---2-----3---3-----0---2------|

When you play the 3rd fret on the E-string and the 3rd fret on the b-string for the the second time, play the b-string open instead.

guest
You may want to rate the tab now too:
select rating
Wanna post a correction for this tab? Suggest correction